Oops, an error
Loading. Please wait.
We have an official Pouring Reign tab made by UG professional guitarists. Check out the tab »
×
25,358 views 9 this week
5 commentsread comments
1 2 3 4 5
x 6
add to favorites
×
Save as Personal and add changes to this tab that will be seen only by you. Learn more ›
×
You can save this tab as Personal to edit and correct it or add notes. All changes will be seen only by you. Learn more »
launch autoscroll
font size
0
reset
how to read this tab
guitar tuner
edit
Autoscroll
slow
fast
+/-
esc
set tempo
stop
Difficulty
intermediate
POURING REIGN
BY AS BLOOD RUNS BLACK
Drop C Tuning [CGCFAD] LOW TO HIGH.

its my first tab. i think i left a part out but the rest is pretty much 100% correct

D[-----------0------------------------0-------------0------]
A[---------8---8----------10--------12--12--------13-13----]
F[-------0-------0-------0---------0------0------0------0--]
C[-----5-----------5---7---------10--------10--10--------10]
G[--7----------------9---------12------------12------------]
C[---------------------------------------------------------]



D[-----------0---------------0]
A[---------5---5-----------3--]
F[-------0-------0-------0----]
C[-----5-----------5---4------]
G[---3---------------5--------]
C[----------------------------]

            
            
Suggest correction
Creating personal tab
Creating personal tab
You can edit any tab online and save it as your Personal.

You can edit, replace or remove any tab part or add personal notes – all changes will be seen only by you.

Personal tabs can be accessed anytime from any device, even offline.
Learn more »
comments
print report bad tab
5 comments total. Showing first comments.
0 reply
deaththrashcore 436 Jun 27, 2007 08:19 AM

This is just Sal's part in the beggining but it's correct I think. You should try and tab some more.

0 reply
xazbrutality13x 31 Jun 28, 2007 02:20 PM

yea i'll try and get ernie's part in there soon just sit tight for now

0 reply
Metalhed592 10 Jul 11, 2007 07:03 AM

D[-----------0------------------------0-------------0------]
A[---------8---8--8-------10---8----12-12-12------13-13----]
F[-------0-------0-------0----0----0-----0-------0-----0---]
C[-----5-----------5---7-----7---10------------10----------]
G[--7----------------/9-----9---12------------12=----------]
C[---------------------------------------------------------]
sounds more right

guest
Wanna post a correction for this tab? Suggest correction