Oops, an error
Loading. Please wait.

Capo bass

version 2
version 2

Whole song

1,655 views 3 this week
2 commentsread comments
1 2 3 4 5
1 last vote to show rating
add to favorites
×
Save as Personal and add changes to this tab that will be seen only by you. Learn more ›
×
You can save this tab as Personal to edit and correct it or add notes. All changes will be seen only by you. Learn more »
launch autoscroll
font size
0
reset
guitar tuner
edit
Autoscroll
slow
fast
+/-
esc
set tempo
stop
Author
Difficulty
-------------------------------------------------------------------------------
			     CAPO - As Cities Burn
-------------------------------------------------------------------------------

Tabbed by: Micah Jayne
Email: micahjayne@gmail.com

Tuning: Standard

As Cities Burn - Capo
From the album "Hell or High Water"

Enjoy!


Intro (Fuzz)

G|------7---------------------------------------------|
D|--9-9-----9---------5-------------------------------|
A|--------9-------7-7----------9\5-5-5----7-7-9--0-0--|
E|----------------------7-7---------------------------| X3

G|-----------7----------------------------------------|
D|-------9-9-----9---------5--------------------------|
A|--0-0--------9-------7-7----------9\5-5-5----7-7----|
E|---------------------------7-7----------------------|

Chorus (Clean)

G|--------------------------------------------------------------------|
D|--5555555555555555----------------99999999999999997777777777777777--|
A|------------------7777777777777777----------------------------------|
E|--------------------------------------------------------------------| X2

G|--------------------------|
D|--99--9--99----99--9--99--|
A|--------------------------|
E|--------------------------|

Intro (Fuzz)

G|------7---------------------------------------------|
D|----------9---------5-------------------------------|
A|--------9-------7-7----------9\5-5-5----7-7-9--0-0--|
E|----------------------7-7---------------------------|

G|------7---------------------------------------------|
D|--7-7-----9---------5-------------------------------|
A|--------9-------7-7----------9\5-5-5----7-7-9-------|
E|----------------------7-7----------------------7-7--|

G|----------------------------------------------------|
D|--------------------5-------------------------------|
A|----------------7-7---------------------------------|
E|----------------------7-7---------------------------|

G|------7---------------------------------------------|
D|--7-7-----9-----------------------------------------|
A|--------9--------------------9\5-5-5----------------|
E|----------------------------------------------------|

Chorus (Clean)

G|--------------------------------------------------------------------|
D|--5555555555555555----------------99999999999999997777777777777777--|
A|------------------7777777777777777----------------------------------|
E|--------------------------------------------------------------------| X2

Bridge (Fuzz)

G|------------------------------------------------------|
D|--/5555555555555555/12121212121212121212121212121212--|
A|------------------------------------------------------|
E|------------------------------------------------------|

G|------------------------------------------------------|
D|--5555555555555555/1212121212121212-9999-12121212-----|
A|------------------------------------------------------|
E|------------------------------------------------------|

G|------------------------------------------------------|
D|--5555555555555555/12121212121212121212121212121212---|
A|------------------------------------------------------|
E|------------------------------------------------------| 

G|------------------------------------------------------|
D|--5555555555555555/1212121212121212-9999-12121212-----|
A|------------------------------------------------------|
E|------------------------------------------------------|

G|------------------------------------------------------|
D|--5555555555555555/1212121212121212\8--\--------------|
A|------------------------------------------------------|
E|------------------------------------------------------|

Chorus (Clean)

G|--------------------------------------------------------------------|
D|--5555555555555555----------------99999999999999997777777777777777--|
A|------------------7777777777777777----------------------------------|
E|--------------------------------------------------------------------| X2

Intro (Fuzz)

G|------7---------------------------------------------|
D|--9-9-----9---------5-------------------------------|
A|--------9-------7-7----------9\5-5-5----7-7-9--0-0--|
E|----------------------7-7---------------------------|




| /  slide up
| \  slide down
| h  hammer-on
| p  pull-off
| ~  vibrato
| +  harmonic
| x  Mute note
===============================================================================
Suggest correction
Creating personal tab
Creating personal tab
You can edit any tab online and save it as your Personal.

You can edit, replace or remove any tab part or add personal notes – all changes will be seen only by you.

Personal tabs can be accessed anytime from any device, even offline.
Learn more »
Give kudos to tab author, rate the tab!
1 2 3 4 5
comments
print report bad tab
2 comments total.
0 reply
breyton 72 Oct 19, 2009 02:02 PM

Great song. It sounds good. Awesome job!

0 reply
Andrewrsk 10 Oct 13, 2014 06:51 PM

Perfect tab, thanks!

guest
You may want to rate the tab now too:
select rating
Wanna post a correction for this tab? Suggest correction