Oops, an error
Loading. Please wait.

Contact Tab

version 1
version 1

Whole song

3,710 views 12 this week
1 commentread comment
1 2 3 4 5
2 more votes to show rating
add to favorites
launch autoscroll
font size
0
reset
how to read this tab
guitar tuner
Autoscroll
slow
fast
+/-
esc
set tempo
stop
Help us to improve Ultimate-Guitar.com Take our survey!
×
Capo
1st fret
-------------------------------------------------------------------------------
                             Contact – As Cities Burn
-------------------------------------------------------------------------------
Tabbed by: Kade 
Email: koolkade10@aol.com       

This is my first tab. It’s basically correct.


Tuning:EADGBE     Capo on 1st fret.


  0:47
e|------------------------------------------------------------------------|
B|------------4---------------------4--------------------4----------------|
G|--------3---3-----------------3---3----------------3---3----------------|
D|--1h3-5-----5-----------1h3-5-----5----------1h3-5-----5----------------|
A|------------0---------------------0--------------------0----------------|
E|------------------------------------------------------------------------|

e|-------------------------|
B|-------------------------|
G|------------2------------|        repeat 4x
D|------0h2---5------------|  
A|----3-------0------------|
E|--4---------4------------|
 
 2:22
e|----------------------------------------------------------------|
B|----------------------------------------------------------------|
G|---2--------------------------------------12—12p10--------------|
D|---5-------------------------8h10/12-------------------12-------|
A|---0----1----------------8h10--------10-------------13-----1-1--|
E|---4--------1-1-1-1-1-1-----------------------------------------|

  2:31
   Guitar 1
e|--------------------------------------------------------------------------|
B|--------------------------------------------------------------------------|
G|--------8------------------8--------------------8-----------------8-------|
D|--10--10---10p8------10--10---10p8--------10--10---10p8-----10--10---10p8-|
A|--------------------------------------------------------------------------|
E|--------------------------------------------------------------------------|

e|--------------------------------------------------------------------------|
B|--------------------------------------------------------------------------|
G|--10—10p8---8--------10—10p8---8----------10-10p8---8-----8h10/12-10-8----|
D|----------10-----------------10-------------------10--8h10-------------8--|
A|--------------------------------------------------------------------------|
E|--------------------------------------------------------------------------|
    Guitar 2
e|--------------------------------------------------------------------------|
B|--------------------------------------------------------------------------|
G|--10-10p8---8-------10-10p8---8---------10-10p8---8-----10-10p8---8-------|
D|----------10----------------10------------------10--------------10--------|
A|--------------------------------------------------------------------------|
E|--------------------------------------------------------------------------|

e|-------------------------------------------------------------------------|
B|-------------------------------------------------------------------------|
G|--10-10h12-10\8----10-10h12-10\8----10-10h12-10\8------------------------|
D|-------------------------------------------------------------------------|
A|-------------------------------------------------------------------------|
E|-------------------------------------------------------------------------|
 
 3:40
e|--------------------------------------------------------------------------|
B|-----13----11-------------------------------13----11----------------------|
G|-----------------12-------------------------------------12----------------|
D|10-10----10----10----10-6h8/10------------10----10----10----10-6h8/10-----|
A|------------------------------8-6------------------------------------8—6h8|
E|----------------------------------8---------------------------------------|

  3:48
e|---------------------------------|
B|--4--444--44---3h4-3h4-6\8-------|
G|--3--333--33---------------------|
D|--5--555--55---------------------|
A|--0--000--00---------------------|
E|---------------------------------|
  3:52
e|--------------------------------------------------------------------------|
B|-----13----11-------------------------------13----11----------------------|
G|-----------------12-------------------------------------12----------------|
D|10-10----10----10----10-6h8/10------------10----10----10----10-6h8/10-----|
A|------------------------------8-6------------------------------------8—6h8|
E|----------------------------------8---------------------------------------|



| /  slide up
| \  slide down
| h  hammer-on
| p  pull-off
| ~  vibrato
| +  harmonic
| x  Mute note
===============================================================================

Suggest correction
Give kudos to tab author, rate the tab!
1 2 3 4 5
comments
print report bad tab
1 comment total.
0 reply
mike_biro727 154 Feb 12, 2010 10:06 AM

that tuning will not match the recording, drop the capo and tune a half-step down

guest
You may want to rate the tab now too:
select rating
Wanna post a correction for this tab? Suggest correction