Oops, an error
Loading. Please wait.

Contact Tab

version 3
version 3

Whole song

1,617 views 6 this week
no commentswrite comment
1 2 3 4 5
3 more votes to show rating
add to favorites
launch autoscroll
font size
0
reset
how to read this tab
guitar tuner
Autoscroll
slow
fast
+/-
esc
set tempo
stop
Help us to improve Ultimate-Guitar.com Take our survey!
×
Difficulty
Capo
intermediate
1st fret
-------------------------------------------------------------------------------
                             Contact – As Cities Burn
-------------------------------------------------------------------------------
Tabbed by: Kade 
Email: koolkade10@aol.com       

I made some improvements but this isn’t exactly how Cody plays this song.  The 
notes are correct but he actually plays in C# tuning without a capo.


Tuning:EADGBE     Capo on 1st fret.


  0:47
e|------------------------------------------------------------------------|
B|------------4---------------------4--------------------4----------------|
G|--------3---3-----------------3---3----------------3---3----------------|
D|--1h3-5-----5-----------1h3-5-----5----------1h3-5-----5----------------|
A|------------1---------------------1--------------------1----------------|
E|------------------------------------------------------------------------|

e|-------------------------|
B|-------------------------|
G|------------3------------|        repeat 4x
D|------1h3---5------------|  
A|----3-------1------------|
E|--4---------4------------|
 
 2:22
e|----------------------------------------------------------------|
B|----------------------------------------------------------------|
G|---3--------------------------------------12—12p10--------------|
D|---5-------------------------8h10/12-------------------12-------|
A|---1----1----------------8h10--------10-------------13-----1-1--|
E|---4--------1-1-1-1-1-1-----------------------------------------|

  2:31
   Guitar 1
e|--------------------------------------------------------------------------|
B|--------------------------------------------------------------------------|
G|----------8------------------8-----------------8------------------8-------|
D|--10h8-10---10p8-----10h8-10---10p8----10h8-10---10p8-----10h8-10---10p8--|
A|--------------------------------------------------------------------------|
E|--------------------------------------------------------------------------|

e|--------------------------------------------------------------------------|
B|--------------------------------------------------------------------------|
G|--10p8-10p8---8------10p8—10p8---8--------10p8-10p8---8-----8h10/12-10-8--|
D|------------10-----------------10-----------------10----8h10-------------8|
A|--------------------------------------------------------------------------|
E|--------------------------------------------------------------------------|
    Guitar 2
e|--------------------------------------------------------------------------|
B|--------------------------------------------------------------------------|
G|--10-10p8---8-------10-10p8---8---------10-10p8---8-----10-10p8---8-------|
D|----------10----------------10------------------10--------------10--------|
A|--------------------------------------------------------------------------|
E|--------------------------------------------------------------------------|

e|-------------------------------------------------------------------------|
B|-------------------------------------------------------------------------|
G|--10-10h12-10\8----10-10h12-10\8----10-10h12-10\8------------------------|
D|-------------------------------------------------------------------------|
A|-------------------------------------------------------------------------|
E|-------------------------------------------------------------------------|
 
 3:40
e|------------------------------------------|
B|-----13----11-----------------------------|
G|-----------------12-----------------------|
D|10-10----10----10----10-------10----------|
A|------------------------11h13----\\8p6----|
E|---------------------------------------8--|

e|------------------------------------------------------------------|
B|-----13----11---------------------------1-111-11------------------|
G|-----------------12---------------------7-777-77----7/8-7/8-10/12-|
D|10-10----10----10----10-------10--------5-555-55----5/6-5/6—-8/10-|
A|------------------------11h13----\\8p6—-6-666-66------------------|
E|------------------------------------------------------------------|


e|------------------------------------------|
B|-----13----11-----------------------------|
G|-----------------12-----------------------|
D|10-10----10----10----10-------10----------|
A|------------------------11h13----\\8p6----|
E|---------------------------------------8--| 

e|--------------------------------------------------------|
B|-----13----11---------------------------1-111-11---1111-|
G|-----------------12---------------------7-777-77---8888-|
D|10-10----10----10----10-------10--------5-555-55---6666-|
A|------------------------11h13----\\8p6—-6-666-66---8888-|
E|--------------------------------------------------------|


e|------------------------------------------------------------------------|
B|------------4---------------------4--------------------4----------------|
G|--------3---3-----------------3---3----------------3---3----------------|
D|--1h3-5-----5-----------1h3-5-----5----------1h3-5-----5----------------|
A|------------1---------------------1--------------------1----------------|
E|------------------------------------------------------------------------|

e|-------------------------|
B|-------------------------|
G|------------3------------|        
D|------1h3---5------------|  
A|----3-------1------------|
E|--4---------4------------|

     solo
e|--------------------------------------------------------------------------|
B|--------------------------------------------------------------------------|
G|--8h10—8h10—8h10-10p8-----------------------------------------------------|
D|----------------------8h10-10/12\10--------8------------------------------|
A|------------------------------------10-8h10-10p8\6------------------------|
E|---------------------------------------------------8--6-------------------|


e|--------------------------------------------------------------------------|
B|--------------------------------------------------------------------------|
G|--10p8-----------------------8h10-10/12---10-10-10\8----------------------|
D|-------8h10-10/12-12-12-8h10-------------------------8h10-10/12\10--------|
A|-------------------------------------------------------------------10-----|
E|--------------------------------------------------------------------------|

e|--------------------------------------------------------------------------|
B|--------------------------------------------------------------------------|
G|---------------------10p8-----------------------8h10-10~---10-10-10p8-----|
D|------8-------------------8h10-10/12-12-12-8h10---------------------------|
A|--8h10-10p8\6-------------------------------------------------------------|
E|--------------8--6--------------------------------------------------------|

e|--------------------------------------------------------------------------|
B|--------------------------------------------------------------------------|
G|--------------------------------------10p8-----------------------8h10--/12|
D|--8h10-10/12\10---------8------------------8h10-10/12-12-12-8h10----------|
A|----------------10--8h10-10p8\6-------------------------------------------|
E|--------------------------------8--6--------------------------------------|

e|--------------------------------------------------------------------------|
B|--10-10-10p8--8-8-8-------------------------------------------------------|
G|--------------------10-10-10-10p8-8-8-8-----------------------------------|
D|-----------------------------------------------8--------------------------|
A|-----------------------------------------10-10---10-6/8-8~--1-------------|
E|--------------------------------------------------------------1-1-1-1-1-1-|

e|--------------------------------------------|
B|------------------------------------------4-|
G|-------------------12—12p10---------------3-|
D|------8h10/12-------------------12--------5-|
A|--8h10--------10-------------13-----1-1---1-|
E|--------------------------------------------|

| /  slide up
| \  slide down
| h  hammer-on
| p  pull-off
| ~  vibrato
| +  harmonic
| x  Mute note
===============================================================================

Suggest correction
Give kudos to tab author, rate the tab!
1 2 3 4 5
comments
print report bad tab
guest
You may want to rate the tab now too:
select rating
Wanna post a correction for this tab? Suggest correction