Oops, an error
Loading. Please wait.

Into The Sea bass

1,190 views 1 this week
no commentswrite comment
1 2 3 4 5
1 last vote to show rating
add to favorites
×
Save as Personal and add changes to this tab that will be seen only by you. Learn more ›
×
You can save this tab as Personal to edit and correct it or add notes. All changes will be seen only by you. Learn more »
launch autoscroll
font size
0
reset
guitar tuner
edit
Autoscroll
slow
fast
+/-
esc
set tempo
stop
Author
Difficulty
Artist - As Cities Burn
Album - Hell of High Water
Year - 2004
Song - Into the Sea

Tabbed by Frank da Penguin.
For Andrew da bass playa'.

This is tabbed for 5-string but can be played on 4-string with some shifting around. The 
tone on the album is a little fuzzy. Slight distortion-like. I'm a bit of a fan of it.

Intro:
G:----------|-------------|-----------|-----------------|-------------------|
D:----------|-------------|-----------|-----------------|-------------------|
A:----------|-------------|-----------|---/11-11-9-11\--|---/11-11----------|
E:4----4-4--|/9----12-12--|\7----6-6--|4----------------|4---------7-9--7---|
B:----------|-------------|-----------|-----------------|-----------------9-|

Verse 1:
G:------|------|-------|------|------|------|-------|-------------------|
D:------|------|-------|------|------|------|-------|-------------------|
A:------|------|-------|------|------|------|-------|---/11-11----------|
E:4-----|(4)---|\7--6--|4-----|4-----|(4)---|\7--6--|4---------7-9--7---|
B:------|------|-------|------|------|------|-------|-----------------9-|

Pre-Chorus:
G:------|------|------|------|
D:------|------|------|------|
A:------| Very | Long | Rest |
E:--9\--|------|------|------|
B:------|------|------|------|

Chorus:
G:------------|------------|        |-----------------|----------|----------|
D:------------|------------|        |-----------------|----------|----------|
A:------------|------------|x2 then,|-----/11-11-9----|----------|----------|
E:2h4---4p0---|0----0h2----|        |2/4-----------12-|9---------|----------|
B:------------|------------|        |-----------------|-----7----|9-9-9--9\-|

Verse 2:
G:-----|---------------------|-------------------------------|
D:-----|---------------------|-------------------------------|
A:-----|---------------------|-------------------------------|
E:///9-|---------------------|7-7-7-7-7-7-7-7-6-6-6-6-6-6-6-9|
B:-----|9--9--9-9-9-9-9-9-9-9|-------------------------------|

G:-----------------------------------------------|-------------------|
D:-----------------------------------------------|-------------------|
A:11-11-11-11-11-11-11-11-11-11-11-11-11-11-11-11|-------------------|
E:-----------------------------------------------|-----------9-------|
B:-----------------------------------------------|9-9-9--9\----9---9/|

G:-------------|-----------|------------------------------|
D:-------------|-----------|------------------------------|
A:-------------|-----------|------------------------------|
E:-------------|----------2|0--0--/12-12-12-12-12-12-12---|
B:/12\\\--12-12|11\\\------|------------------------------|

Chorus:
G:------------|------------|        |--------|----------|---------|---------|
D:------------|------------|        |--------|----------|---------|---------|
A:------------|------------|x2 then,|--------|----------|---------|---------|
E:2h4---4p0---|0----0h2----|        |0---0---|0h2--2h4--|4---4p0--|0---0h2--|
B:------------|------------|        |--------|----------|---------|---------|

Bridge:
G:-------|-------|-------|-------|-------|-------|-------|-------|
D:-------|-------|-------|-------|-------|-------|-------|-------|
A:-------|-------|-------|-------|-------|-------|-------|-------|
E:--6--2-|--0----|--2----|--4----|--6--2-|--0----|--2----|--4----|
B:-------|-------|-------|-------|-------|-------|-------|-------|

Bass sits out while guitar plays through a section of the chorus.
When bass comes back in, it plays the following:

Chorus:
G:------------|------------|        |--------|----------|---------|---------|
D:------------|------------|        |--------|----------|---------|---------|
A:------------|------------|x4 then,|--------|----------|---------|---------|
E:2h4---4p0---|0----0h2----|        |0---0---|0h2--2h4--|4---4p0--|0---0h2--|
B:------------|------------|        |--------|----------|---------|---------|

Outro:
G:-----------------------|---------------------------------------|--------|-|
D:-----------------------|---------------------------------------|--------|-|
A:-----------------------|---------------------------------------|--------|-|
E:4---4---4-4-4-4-4-4-4-4|9-9-9-9-9-9-9-9-12-12-12-12-12-12-12-12|7---6---|4|
B:-----------------------|---------------------------------------|--------|-|

Play the outro softly, with the exception of the last G#.
Play this hard and ring it out.


Legend (not of Zelda):
h = hammer on
p = pull off
/ = slide up
\ = slide down
/// = long, slow slide up
\\\ = long, slow slide down
| = separation of bars

I'm not sure why I put a legend. It shouldn't be necessary. We're all tab-reading bass 
here. But just in case.

Questions, comments, and death threats can be sent to me via message.

To all 3 of you who will check this out, enjoy!

            
            
Suggest correction
Creating personal tab
Creating personal tab
You can edit any tab online and save it as your Personal.

You can edit, replace or remove any tab part or add personal notes – all changes will be seen only by you.

Personal tabs can be accessed anytime from any device, even offline.
Learn more »
Give kudos to tab author, rate the tab!
1 2 3 4 5
comments
print report bad tab
guest
You may want to rate the tab now too:
select rating
Wanna post a correction for this tab? Suggest correction