Oops, an error
Loading. Please wait.

Into The Sea tab

version 1
version 1

Whole song

6,310 views 1 this week
9 commentsread comments
1 2 3 4 5
x 3
add to favorites
×
Save as Personal and add changes to this tab that will be seen only by you. Learn more ›
×
You can save this tab as Personal to edit and correct it or add notes. All changes will be seen only by you. Learn more »
launch autoscroll
font size
0
reset
how to read this tab
guitar tuner
edit
Autoscroll
slow
fast
+/-
esc
set tempo
stop
Difficulty
intermediate
A work in Progress. I've got the other parts coming. Patience. The other one was 
pretty off I've got the intro for you now.


Artist: As Cities Burn
Song: Into the Sea

Tabbed by: Cullen Brain
Comments/Corrections: Keepingitrealworld@gmail.com



Standard Tuning


Intro: This is the patterns. Listen to song for timing.
He also up strokes the chords some. *indicated.
E|---------------------------------------------------------|
B|-------9----------------9--------------------------------|
G|---------11---------------11-----------------------------|
D|--4/9~------9H11-9-----------9H11p9-11/13----------------|
A|--6/11~-----11*----11~-------11*-------------------------|
E|---------------------------------------------------------|


X = Harmonic
E|---------------------------------------WAIT4IT-----------|
B|-----------12---------------------------------*0~----9X--|
G|---------11--11------------11*----11*\8~------*8~----9X--|
D|-------13------13---11--13-11*----11*\9~------*9~----9X--|
A|--11/14-----------13--14---13*H14P13-\11~----------------|
E|---------------------------------------------------------|

Suggest correction
Creating personal tab
Creating personal tab
You can edit any tab online and save it as your Personal.

You can edit, replace or remove any tab part or add personal notes – all changes will be seen only by you.

Personal tabs can be accessed anytime from any device, even offline.
Learn more »
Give kudos to tab author, rate the tab!
1 2 3 4 5
comments
print report bad tab
9 comments total. Showing first comments.
0 reply
fearberoretmof 36 Jul 31, 2009 12:59 PM

lol you just took my tab and played it somewhere else. but ill help you with the rest of the song?

+1 reply
ShimmerAndSpill 72 Aug 02, 2009 07:35 PM

I'm pretty sure that they play with every string played a half step down, try tuning your guitar and learning it that way, it'll probably be a bit easier to play.

-1 reply
EKCender429 254 Aug 03, 2009 06:55 PM

shimmerAnd Spill:

In regards to the half-step down tuning,normally, yes you are right but if you take attention to the bass part, it would make more sense for it to be in Standard tuning...

Chorus bass part in Standard:

3--------------------
4--------------------
5--------------------
6-4---0--0---2-------

Chorus bass part in half-step down:

3--------------
4--------------
5--------------
6-5---1--1---3-

There's no sure way of telling but it would be much easier to play in standard tuning because of the open string

guest
Wanna post a correction for this tab? Suggest correction