Oops, an error
Loading. Please wait.

Of Want And Misery The Nothing That Kills Tab

version 1
version 1

Whole song

3,685 views 1 this week
1 commentread comment
1 2 3 4 5
please rate
add to favorites
launch autoscroll
font size
0
reset
how to read this tab
guitar tuner
Tab Pro tools
  • play this tab
  • loop segment
  • change instrument
  • show fretboard
  • metronome
×
Best way to learn
"Of Want And Misery The Nothing That Kills"
Autoscroll
slow
fast
+/-
esc
set tempo
stop
Contributor
------------------------------------------------------------------
   Of Want & Misery: The Nothing That Kills - As Cities Burn
------------------------------------------------------------------
Tabbed by: Kristyn Lee
Email: spot_the_village_loony_836@hotmail.com

Tuning: Drop D

Delayed intro
e|--------------------------------------------------------------|
B|--10-(10)-(10)-(10)---7--(7)-(7)-(7)-(7)--3-(3)-(3)-(3)-(3)---|
G|--9--(9-)-(9)--(9-)---6--(6)-(6)-(6)-(6)--2-(2)-(2)-(2)-(2)---|
D|--------------------------------------------------------------|
A|--------------------------------------------------------------|
D|--------------------------------------------------------------|

e|-------------------------------|
B|-------------------------------|
G|-------------------------------|x2
D|---/9~----------4~--------0~---|
A|-------------------------------|
D|-------------------------------|

         "i watched you float away.."
e|--9p7--------------------------------------------|
B|----------7p5-7p5----7~--------------------------|
G|-------------------------6~----------------------|
D|-----------------------------7~------------------|
A|-------------------------------------------------|
D|-------------------------------------------------|

     "above the water..."
e|-----------------------------|
B|-----------------------------|
G|----------9h11p9-------------|
D|--9h11/12--------------------|
A|------------------10-/12-----|
D|-----------------------------|

     "while the current..."
e|-----------------------------|
B|-----------------------------|
G|----------9h11p9-------------|
D|--9h11/12--------------------|
A|------------------10---------|
D|-----------------------------|

     "pulls me under..."
e|----------------------9------|
B|-----------------------------|
G|----------9h11p9-------------|
D|--9h11/12--------------------|
A|-----------------10----------|
D|-----------------------------|

Repeat that riff 3 times, has a couple of minor changes though

1:34
e|-----------------|
B|-----------------|
G|-----------------|
D|--4-----444------|
A|--2-555-222------|
D|----555----------|


e|----------------------------------------|
B|----------------------------------------|
G|----------------------------------------|
D|--4444444444444444----------------------|
A|--2222222222222222-5555555555555555-----|
D|-------------------5555555555555555-----|

    "NOTHING"
e|-------------------|
B|-------------------|
G|-------------------|
D|--4~--4~-----------|
A|--4~--4~-----------|
D|--5~--5~-----------|

e|----------------------------------------|
B|----------------------------------------|
G|----------------------------------------|x2
D|--4444444444444444----------------------|
A|--2222222222222222-5555555555555555-----|
D|-------------------5555555555555555-----|


    "NOTHING"
e|-------------------|
B|-------------------|
G|-------------------|x4
D|--4~--4~--4~-------|
A|--4~--4~--4~-------|
D|--5~--5~--5~-------|

first solo
e|--------------------------------9-9------------10----|
B|--10h12--12-12------12-12-12p10-----12p10-10\7-------|
G|-----------------------------------------------------|
D|---------------12------------------------------------|
A|-----------------------------------------------------|
D|-----------------------------------------------------|

e|-----------------------------------------------------|
B|--7^-------7-----------------------------------------|
G|-----9-7-9----6^-------------------------------------|
D|------------------9-7-9-7~~--------------------------|
A|-----------------------------------------------------|
D|-----------------------------------------------------|

guitar 1
e|-----------------|
B|-----------------|
G|--------0--------|
D|-----4-----------|
A|--2--------------|
D|-----------------|
guitar 2
e|--------9h10-17-----------|
B|-----12---------15-12-----|
G|--11----------------------|
D|--------------------------|
A|--------------------------|
D|--------------------------|

ok i ended up tabbing the solo, it's nice.

e|-------------------------------------------------|
B|-------------------------------------------------|
G|--------------9-11----------9-11/14--14^-16------|
D|--/9--9h11/12-------9h11/12----------------------|
A|-------------------------------------------------|
D|-------------------------------------------------|

e|-------------------------------------------------|
B|----12^-12^-12-12p10-14p12-12p10-10-10\8-8\7-----|
G|-------------------------------------------------|
D|-12----------------------------------------------|
A|-------------------------------------------------|
D|-------------------------------------------------|

e|--------10--------10--------10----------------17----------17-------|
B|-7h8h10----7h8h10----7h8h10----7/14--14-15-17----14-15-17----------|
G|-------------------------------------------------------------------|
D|-------------------------------------------------------------------|
A|-------------------------------------------------------------------|
D|-------------------------------------------------------------------|

e|-----------17p15p14-15p14------------------------------------------|
B|--14h15h17----------------17-14^p12-12\10-10\7^--------------------|
G|-------------------------------------------------9-7-6^------------|
D|---------------------------------------------------------9-7-9-7---|
A|-------------------------------------------------------------------|
D|-------------------------------------------------------------------|

Last chorus coming.


| /  slide up
| \  slide down
| h  hammer-on
| p  pull-off
| ~  vibrato
| +  harmonic
| x  Mute note
===================================================================
comments
We did not receive enough feedback on this tab! Please rate:
print report bad tab
1 2 3 4 5
1 comment total.
0 reply
Kaasflipje wrote on May 9 2010, 12:18 pm

Could you please finish it? It's a great tab.

I want to post or [tab]
guest
You may want to rate the tab now too:
select rating
Please do not post tabs as comments. Select "correction" instead!