Oops, an error
Loading. Please wait.

Widow bass

version 1
version 1

Whole song

Interactive

1,852 views 1 this week
no commentswrite comment
1 2 3 4 5
x 3
add to favorites
×
Save as Personal and add changes to this tab that will be seen only by you. Learn more ›
×
You can save this tab as Personal to edit and correct it or add notes. All changes will be seen only by you. Learn more »
launch autoscroll
font size
0
reset
guitar tuner
edit
Autoscroll
slow
fast
+/-
esc
set tempo
stop
Author
Difficulty
Name:The widow
Band: As cities burn
Album: Son, i loved you at your darkest.

Sorry its only bass tabs, but me and tml492 are working on the guitar parts (Codys fills
rediculous!). Im not that sure on its accuacry, but i figured id give it a shot. It was
hard to tab, either because i just got a bass or i suck at hearing the bass in a song.
becuase i got the bass just 12 hours ago lol. But either way i think its
 If there is anything you see wrong with it, PM me here. Be on the look out for more
tabs from me. Once again, take my stuff but give me credit. Great work on the tabs so 
asilayliving.

Tuning: DADG

Intro:
G|-----------------------------------------------------------------------|
D|-----------------------------------------------------------------------|
A|--7--5--7--5--7--5--7--5-----------------------------------------------|
D|-----------------------------------------------------------------------|

When the singing starts: (:23)
G|-----------------------------------------------------------------------|
D|-----------------------------------------------------------------------|
A|---7--5--7--5--3--1--5--3--1--0--0-------------------------------------|
D|-----------------------------------------------------------------------|

Next "verse" (1:13)
G|-----------------------------------------------------------------------|
D|-----------------------------------------------------------------------|
A|---7--5--7--5--5--7--3--5--1--5--7--3--5--1--0---5--7--3--5--1---------|
D|-----------------------------------------------------------------------|

Next "verse" (2:02)

G|-----------------------------------------------------------------------|
D|-----------------------------------------------------------------------|
A|---7--5--7--5--7--9--10--9--7--5--3--1--5--7--7--5--3------------------|
D|-----------------------------------------------------------------------|

End

G|-----------------------------------------------------------------------|
D|-----------------------------------------------------------------------|
A|--7--5-----------------------------------------------------------------|
D|-----------------------------------------------------------------------|
Suggest correction
Creating personal tab
Creating personal tab
You can edit any tab online and save it as your Personal.

You can edit, replace or remove any tab part or add personal notes – all changes will be seen only by you.

Personal tabs can be accessed anytime from any device, even offline.
Learn more »
Give kudos to tab author, rate the tab!
1 2 3 4 5
comments
print report bad tab
guest
You may want to rate the tab now too:
select rating
Wanna post a correction for this tab? Suggest correction