Oops, an error
Loading. Please wait.

Widow tab

version 1
version 1

Whole song

Interactive

8,998 views 1 this week
7 commentsread comments
1 2 3 4 5
x 7
add to favorites
×
Save as Personal and add changes to this tab that will be seen only by you. Learn more ›
×
You can save this tab as Personal to edit and correct it or add notes. All changes will be seen only by you. Learn more »
launch autoscroll
font size
0
reset
how to read this tab
guitar tuner
edit
Autoscroll
slow
fast
+/-
esc
set tempo
stop
Drop D
Capo on the 3rd Fret

This song is simply amzing, i tried my best to tab it. It may not be 100% correct, but
rate nicely. It's was a really hard song to tab. i hope you enjoy it. and by the way,
job to asilayliving on the other as cities burn tabs.

E --------------------------------------------------|
B --8-------8------------8----6---------------------|
G --9----------9---8h10-------7---7----8h10---------|
D --9---9---------------------7---------------------|
A --7-------------------------5---------------------|
D --------------------------------------------------|


E --------------------------------------------------|
B --8------8----------8----------8s13-10------------|
G --9---------9--8h10-----8----------------10-10s---|
D --9---9--------------------10---------------------|
A --7-----------------------------------------------|
D --------------------------------------------------|

E --------------------------------------------------|
B --8-------8------------8----6---------------------|
G --9----------9---8h10-------7---7----8h10---------|
D --9---9---------------------7---------------------|
A --7-------------------------5---------------------|
D --------------------------------------------------|


E --------------------------------------------------|
B --8------8----------8----------10s11-----10s11----|
G --9---------9--8h10-----8------------8----------8-|
D --9---9--------------------10---------------------|
A --7-----------------------------------------------|
D --------------------------------------------------|


These are the chords cody plays when he starts singing. remember, there is a capo on the
fret. I am putting the chords on top of the lyrics, but you're going to have to find
strumming pattern, sorry. It's pretty easy to figure out though. And this might not be 
but i hope you can figure it out and enjoy. please rate nicely once again.

   Am
Dead man, were you ever alive?
   C                           C
Or was I just a seed you buried deep inside
   Em                                          Am                    C
Some woman you wed right before you crawled out of her bed and crept down the hall?
   Am                            Em                        Am
Did you think of me? Did you even for a second hesitate in the doorway?
   C                   C
It's just something that I'd like to know
    C              Em
Though I'd still love you if told me
   Em          Am
You just walked away


  C                     Em
My God, what a world you love
   Em                C
Where men bury their sons
   Em                         C
And without thought just walk away


  Am                 Am
And my mother's heart breaks
  Em          C
Like the water inside of her
[x2]


                                         Em
Dead man, is it being high that makes you alive?
     Em             C                             Em
It makes you leave behind three boys and a wife in '89
   Am                                 Am
As the track marks inched their way up your arm
   C                                   Em
My mother taught my brothers and I not to call you daddy
         Am
But to call you father
   C                                             Em
But I believe there is something here to be learnt of grace
   Em                Am
Cause' I can't help but love you
  Am               C                        Am
No I can't but help you even with, a heart that breaks like
  Am                C
The promises that you made
                  Em
Like the promises that you made
          C
The promises that you made
         Em
Cause I can't help but love you.
  C                 Em
My God, what a world you love
Suggest correction
Creating personal tab
Creating personal tab
You can edit any tab online and save it as your Personal.

You can edit, replace or remove any tab part or add personal notes – all changes will be seen only by you.

Personal tabs can be accessed anytime from any device, even offline.
Learn more »
comments
print report bad tab
7 comments total. Showing first comments.
0 reply
AsILayLiving 412 Jul 26, 2006 09:21 AM

Looks like it cut you off before you could say wut fret to put the capo on......

0 reply
tml492 61 Jul 26, 2006 09:26 AM

3rd fret dude.

0 reply
aboveme 83 Jul 26, 2006 08:12 PM

yea this is way wrong

guest
You may want to rate the tab now too:
select rating
Wanna post a correction for this tab? Suggest correction