Oops, an error
Loading. Please wait.

An Ocean Between Us Tab

version 2
version 2

Album

Whole song

12,574 views 6 this week
2 commentsread comments
1 2 3 4 5
please rate
add to favorites
launch autoscroll
font size
0
reset
how to read this tab
guitar tuner
Tab Pro tools
  • play this tab
  • loop segment
  • change instrument
  • show fretboard
  • metronome
Autoscroll
slow
fast
+/-
esc
set tempo
stop
Contributor
  Band: As I Lay Dying
  Song: An Ocean Between Us
 Album: An Ocean Between Us
           Tabber: dicer4    ( Dereck )
            Email: Dicer4@msn.com

Release notes. heres my version of the song it sounds alright, theres a second guitars 
both the verses so just play the verses two to three fretts higher and thats your second 
lol enjoy, "Payce"

   Verse "A"
d|------------------------------------|
A|------------------------------------|
F|------------------------------------|
C|-----0-----0---0-----0--------------|
G|---0-----0---0-----0----5p0---------|
C|-0-----0---------0----------8p5-----|

   Verse "B"
d|-------------------------------------------------|
A|-------------------------------------------------|
F|-------------------------------------------------|
C|-------------------------------------------------|
G|-7p5---------7h8p7-----7h8---------7h8p7----7p5--|
C|-----0000000-------10------0000000-------10------|
pm     .......               .......
    Fill
d|-------------------------------------|
A|-------------------------------------|
F|-------------------------------------|
C|-------------------------------------|
G|-0h1---1---3---5----7-----7h8p7------|
C|-----0---0---0----3---3----------10--|
pm     .   .   .    .   .
   Pre-Chourse Gtr1
d|------------------------------------|
A|------------------------------------|
F|------------------------------------|
C|------------------------------------|
G|------------------------------------|
C|-00000000000000000000000------------|
pm .......................
   Pre-Choures Gtr2
d|------------------------------------|
A|------------------------------------|
F|-7777777777777777-------------------|
C|-xxxxxxxxxxxxxxxx-------------------|
G|-5555555555555555-------------------|
C|------------------------------------|


   Chourse Gtr 1
d|------------------------------------------------------------|
A|------------------------------10----------------------------|
F|---------10p9--9--10----10p9------10----10p9--9--10--12--10-|
C|-12121212----12-12--1212----12--12--1212----12-12--12--12---|
G|------------------------------------------------------------|
C|------------------------------------------------------------|
pm . . . .     .  .   . .     .   .   . .     .  .   .   .
    Chourse Gtr 2
d|-------|-------|-------|-------|
A|-------|-------|-------|-------|
F|-------|-------|-------|-------|
C|-0-~---|-3-~---|-3-~---|-5-~---|
G|-0-~---|-3-~---|-1-~---|-5-~---|
C|-0-~---|-3-~---|-------|-5-~---|

  this is played during the last choures by Gtr 1
d|--------------------------------------------------------------------|
A|--------------------------------------------------------------------|
F|--------------------------------------------------------------------|
C|----------0-------0-------0-----------------3-------3-------3-------|
G|-00000000-0--0000-0--0000-0--0000-333333333-3--3333-3--3333-3--3333-|
C|-00000000-0--0000-0--0000-0--0000-333333333-3--3333-3--3333-3--3333-|
pm ........    ....    ....    .... .........    ....    ....    ....\

d|--------------------------------------------------------------------|
A|--------------------------------------------------------------------|
F|--------------------------------------------------------------------|
C|-33333333-3--3333-3--3333-3--3333-----------5-------5-------5-------|
G|-11111111-1--1111-1--1111-1--1111-555555555-5--5555-5--5555-5--5555-|
C|----------1-------1-------1-------555555555-5--5555-5--5555-5--5555-|
pm ........    ....    ....    .... .........    ....    ....    ....

   Interlude Gtr 1 plays this
d|------------------------|
A|------------------------|
F|------------------------|
C|------------------------|
G|------------------------|
C|-0-0-0-0-0-0-0-0-0-0-0--|
pm . . . . . . . . . . .

   Gtr 2 plays this, it might not be in the best order but these are the notes.
d|-5-----------5-------|
A|---4---4---4--4--4---|
F|-----6---6------6-6--|
C|---------------------|
G|---------------------|
C|---------------------|
comments
We did not receive enough feedback on this tab! Please rate:
print report bad tab
1 2 3 4 5
2 comments total.
0 reply
msr#1fan wrote on February 21 2008, 03:57 pm

this is how i play the intro it might be easier
|---------------------------------|
|---------------------------------|
|---------------------------------|
|---------------------------------|
|--0-5--0-5-0-5p0--5p0-5p0--------|
|-0----0----------0--------8p5----|

0 reply
=/\= wrote on July 20 2011, 11:03 pm

I'm pretty sure the intro is a tapping thing.


D|------------------------------------|
A|------------------------------------|
F|------------------------------------|
C|------------------------------------|
G|------------------------------------|
C|0-7-12-0-7-12-0-12-0-7-12-0-12-0-8-5|

I want to post or [tab]
guest
You may want to rate the tab now too:
select rating
Please do not post tabs as comments. Select "correction" instead!