Oops, an error
Loading. Please wait.

An Ocean Between Us Tab

version 4
version 4

Whole song

779 views 3 this week
1 commentread comment
1 2 3 4 5
please rate
add to favorites
launch autoscroll
font size
0
reset
how to read this tab
guitar tuner
Autoscroll
slow
fast
+/-
esc
set tempo
stop
Help us to improve Ultimate-Guitar.com Take our survey!
×
Contributor
Difficulty
Tuning
intermediate
C G C F A D
As I Lay Dying
An Ocean Between Us

H=Hammer on
P=Pull off
PH=Pinch harmonic
*=Palm mute
All I can say is listen to the song and figure it out for yourself, this is a very 
straight forward song, I’m pretty sure this is 100% correct

Intro Guitar 1 & 2
D|--------------------------------------------------|
A|--------------------------------------------------|
F|--------------------------------------------------|
C|--------------------------------------------------|
G|--------------------------------------------------|
C|-0h7p12—0h7p12—0h12—0h7p12—0h5p8------------------|

Intro 2 Guitar 1 & 2
D|--------------------------------------------------|
A|--------------------------------------------------|
F|--------------------------------------------------|
C|--------------------------------------------------|
G|----------------------------------------5--7--8---|
C|-0h7p12-0h7p12-0h12-0h7p12-0h5p8--5--7------------|


Verse Part 1 Guitar 1 & 2
D|--------------------------------------------------|
A|--------------------------------------------------|
F|--------------------------------------------------|
C|-3p2p3p2h0----------------------------------------|
G|------------0000000000----------------------------|
C|------------0000000000----------------------------|
             *********
Verse 2 Guitar 1 & 2
D|---------------------------------------------------
A|--------------------------------------------------|
F|--------------------------------------------------|
C|-3p2p3p2----------------------3p2p3p2h0-----------|
G|---------------------5--7--8----------------------|
C|----------5h8--5--7-------------------------------|

Pre-chorus Guitar 1
D|-----------------------------------------------------|
A|---------------------10-10-10-10-10-10-10-10-10-10-10|
F|---------------------7--7--7--7--7--7--7--7--7--7--7-|
C|---------------------0--0--0--0--0--0--0--0--0--0--0-|
G|-00000000000000000-----------------------------------|
C|-00000000000000000-----------------------------------|
   *****************
Pre-chorus Guitar 2
D|--------------------------------------------------|
A|--------------------------------------------------|
F|--------------------------------------------------|
C|--------------------------------------------------|
G|-00000000000000000000000000000000000--------------|
C|-00000000000000000000000000000000000--------------|
   ***********************************
Chorus Guitar 1
D|--------------------------------------------------|
A|-----------------------10-------------------------|
F|--10p9--10--9—10p9--9------10p9--9--10--12--10----|
C|--------------------------------------------------|
G|--------------------------------------------------|
C|--------------------------------------------------|

Chorus Guitar 2
D|--------------------------------------------------|
A|--------------------------------------------------|
F|--------------------------------------------------|
C|-12-12-12-12-12-12-12-12-12-12-12-12-12-12-12-12--|
G|--------------------------------------------------|
C|--------------------------------------------------|
   ***********************************************

Breakdown Guitar 1 & 2 
D|---------------------------------------------------------------|
A|---------------------------------------------------------------|
F|---------------------------------------------------------------|
C|----------0------------------0------------------0--------------|
G|-00000000-0------------------0------------------0--------------|
C|-00000000-0-0000000000000000-0-0000000000000000-0-000000000-3PH|
   ********   ****************   ****************   *********           
Only play this one ^ Once at the start of the breakdown (Anyway don’t hate me, I 
don’t know what to call this, so I though breakdown was suitable)

Breakdown Guitar 1 & 2 Part 1

D|--------------------------------------------------|
A|--------------------------------------------------|
F|--------------------------------------------------|
C|----------0------------------0------------------0-|
G|-00000000-0------------------0------------------0-|
C|-00000000-0-0000000000000000-0-0000000000000000-0-|
   ********   ****************   ****************   

Breakdown Guitar 1 & 2 Part 2
D|---------------------------------------------------------------|
A|---------------------------------------------------------------|
F|---------------------------------------------------------------|
C|-33333333--1111111111------------------------------------------|
G|-33333333--1111111111------------------------------------------|
C|-33333333--0000000000------------------------------------------|

After this just play the chorus and then the intro then the song is done.
comments
We did not receive enough feedback on this tab! Please rate:
print report bad tab
1 2 3 4 5
1 comment total.
0 reply
FIGJAMpAnAnAz 99 wrote on June 13 2011, 02:34 am

FUCK this is a correction for my OWN tab

D|---------------------------------------------------------------|
A|---------------------------------------------------------------|
F|---------------------------------------------------------------|
C|-33333333--1111111111------------------------------------------|
G|-33333333--1111111111------------------------------------------|
C|-33333333--5555555555------------------------------------------|

I want to post or [tab]
guest
You may want to rate the tab now too:
select rating
Please do not post tabs as comments. Select "correction" instead!