Oops, an error
Loading. Please wait.

Beginning Tab

version 2
version 2

Whole song

1,269 views 3 this week
no commentswrite comment
1 2 3 4 5
1 last vote to show rating
add to favorites
launch autoscroll
font size
0
reset
how to read this tab
guitar tuner
Autoscroll
slow
fast
+/-
esc
set tempo
stop
Help us to improve Ultimate-Guitar.com Take our survey!
×
Band: AS I LAY DYING
Album: frail words collapse
Song: The Beginning

Tabbed by: James A. Grillo
Email: JAGrillo@mchsi.com

ehh, well I'm very sure its accurate.... but i probly did make a mistake here and there.
play with the CD for timing and whatever ells you need to get it down.  enjoy.

Tuning is: CGCFAD 


Gtr 1:  (intro)
D | --------------------------------------------|
A | --------------------------------------------|
F | ---12-14-12/-10-12-10--9-10-9/--7\10--------|
C | --------------------------------------------|
G | --------------------------------------------|
C | --------------------------------------------|

Gtr 1:  (intro) (repeat intro x4)
D | ---------------------------------|
A | ---------------------------------|
F | ---14---10--14---10--------------| 
C | -----15-------15-----------------|
G | ---------------------------------|
C | ---------------------------------|

Gtr 2:  (during intro)                              
D | ----------------------| 
A | ----------------------| 
F | ---3-3----------------| 
C | ---0-0----------------| 
G | ---1-1-(x4)-----------| 
C | ----------------------| 
                                                        

Gtr 2:( 0:20 in)
D | -----------------------------------------------|
A | -----------------------------------------------|
F | ---3-5-7------7---7---7---3-5-7----------------| 
C | ---0-0-0----0-0-0-0-0-0---0-0-0----------------|
G | ---1-3-5----0-5-0-5-0-5---1-3-5--(x2)----------| 
C | ------------0---0---0--------------------------|
PM              *   *   *


Gtr 2:  (0:45 in)                              
D | -----------------------------------| 
A | -----------------------------------| 
F | -----7-7-7-7-----7-7-7-7-----------| 
C | --0--0-0-0-0--0--0-0-0-0-----------| 
G | --0--5-5-5-5--0--5-5-5-5-----------|
C | --0-----------0--------------------| 
PM       * * * *     * * * *

Gtr 2: (0:50 in)
D | ---------------------------|
A | ---------------------------|
F | ---7--9--10----------------|
C | ---0--0--0-----------------|
G | ---5--7--8-----(x3)--------| 
C | ---------------------------|        

Gtr 1:  (0:50 in)
D | -------------------------|     
A | -------------------------| 
F | -------------------------| 
C | --7-7h8-3--7-7h8---------| 
G | -----------------8-------|(3)
C | -------------------------| 

Gtr 1:  (1:03 in)
D | ------------------------------------------|
A | ------------------------------------------|
F | -12-14-12-/--10-12-10--9-10-9-/--7-\-10---|
C | ------------------------------------------|
G | ------------------------------------------|
C | ------------------------------------------|

Gtr 1:  (1:05 in)
D | ------------------------------------------|
A | ------------------------------------------|
F | --12-14-12----12-14-12—10r----------------| 
C | ----------15------------------------------|
G | ------------------------------------------|
C | ------------------------------------------|

Gtr 2: (During lead)
D | ----------|
A | ----------|
F | ----3-----| 
C | ----0-----|
G | ----1-----|
C | ----------|

Gtr 2:  (1:08 in)
D | ---------------------|
A | ---------------------|
F | ----7--9--10---------| 
C | ----0--0--0----------|
G | ----5--7--8----------|
C | ---------------------|

Gtr 1:  (1:08 in)
D | ---------------------------------------------------|
A | ---------------------------------------------------|
F | ---------------------------------------------------|
C | ---7-7h8--3---7-7h8---7-7h8-9-8-7h8b-5-------------|
G | -------------------8-------------------------------|(x2)
C | ---------------------------------------------------|

Gtr 2:  (1:18 in )
D | ----------------------------------|
A | ----------------------------------|
F | ---77------9------10------12------|
C | ---00-00---0--00---0--00---0------|
G | ---55-00---7--00---8--00--10------|(x2)
C | ------00------00------00----------|
PM     ** **      **      **

Gtr 1:  (1:27 in)
D | -------------------------|
A | -------------------------|
F | -------------------------|
C | --9-8-7h8b-5-------------|
G | -------------------------|(x2)
C | -------------------------|

Gtr 2: (1:28 in)
D | ------------------------|
A | ------------------------|
F | --7--9--10--------------|
C | --0--0--0---------------|
G | --5--7--8---------------|(x2)
C | ------------------------|

Gtr 1:  (1:28 in)
D | ----------------------------------------------|
A | ----------------------------------------------|
F | ----------------------------------------------|
C | --7-7h8--3---7-7h8-----7-7h8-9-8-7h8b-5-------|
G | ------------------8---------------------------|(x2)
C | ----------------------------------------------|


Gtr 2: (1:48 in)
D | --------------------------|
A | --------------------------|
F | ---7-7---3-3--5-5---------| 
C | ---0-0---0-0--0-0---------|
G | ---5-5---1-1--3-3---------|(x4)
C | --------------------------|

Gtr 2: (2:08 in) 
D | ----------------|
A | ----------------|
F | --3--5—-7-------| 
C | --0--0--0-------| 
G | --1--3--5-------| 
C | ----------------|

Gtr 2: (2:14 in)                                                   
D | -----------------------------------------------|
A | -----------------------------------------------|
F | ----7---7----7--3-5--7-----7----7--7---3-5-----| 
C | --0-0-0-7-0-0---0-0--0---0-0-0-0-0-0---0-0-----|
G | --0-5-0-5-0-5---1-3--5---0-5-0-5-0-5---1-3r----| 
C | --0---0---0--------------0---0---0-------------|
PM    *   *   *              *   *   *

Gtr 2: (2:34 in)
D | ------------------------|
A | ------------------------|
F | --7--9--10--------------|
C | --0--0--0---------------|
G | --5--7--8---------------|(x2)
C | ------------------------|



Gtr 1: (2:34 in)
D | --------------------------------------------|
A | --------------------------------------------|
F | --------------------------------------------|
C | --7-7h8--3---7-7h8-----7-7h8-9-8-7h8b-5-----|
G | ------------------8-------------------------|(x2)
C | --------------------------------------------|


Gtr 2: (2:44 in)
D | --------------------------|
A | --------------------------|
F | ---7-7---3-3--5-5---------| 
C | ---0-0---0-0--0-0---------|
G | ---5-5---1-1--3-3---------|(x4)
C | --------------------------|

Gtr 2: (3:04 in)
D | ------------|
A | ------------|
F | ---7--------| 
C | ---0--------|
G | ---5r-------| 
C | ------------|


HEARTOFESTHER ROCKS
Suggest correction
Give kudos to tab author, rate the tab!
1 2 3 4 5
comments
print report bad tab
guest
You may want to rate the tab now too:
select rating
Wanna post a correction for this tab? Suggest correction