Oops, an error
Loading. Please wait.

Blood Turned To Tears Bass Tab

version 1
version 1

Whole song

Interactive

106 views 1 this week
no commentswrite comment
1 2 3 4 5
3 more votes to show rating
add to favorites
launch autoscroll
font size
0
reset
guitar tuner
Autoscroll
slow
fast
+/-
esc
set tempo
stop
Help us to improve Ultimate-Guitar.com Take our survey!
×
Author
Difficulty
Tuning
novice
C G C F A D
Tabbed By : Keegan 
e-mail: Starchild1511@yahoo.com

Tuning:CGCF

Go easy on me, it's my first tab.

(0:00-0:07)Played 4 times.
F|--------------------------------------------------------------------------|
C|--------------------------------------------------------------------------|
G|--------------------------------------------------------------------------|
C|0000----------------------------------------------------------------------|

(0:07-0:19)Played 4 times.
F|--------------------------------------------------------------------------|
C|-----5/7/8----5h8-77------------------------------------------------------|
G|--------------------------------------------------------------------------|
C|0---------0---------------------------------------------------------------|

(0:19-0:25)
F|--------------------------------------------------------------------------|
C|--------------------------------------------------------------------------|
G|--------------------------------------------------------------------------|
C|--------------------------------------------------------------------------|

(0:25-0:38)
F|---------|            |---------|
G|------7--|  (4 times) |------9--| (4 times)
C|-----0-6-|            |-------8-|
C|0--0-----|            |-0-000---| 

(0:38-0:50) (2 times)                            
F|----------------------------------|      |-------------------------------|
C|--------------------------------3b|      |--------------------------3b---|
G|(1x)------------------------------|      |-------------------------------|
C|000----0-0-0-0-0-0-0-0-8-7-5-7-3--|      |0000000000000000-8-7-5-7-3-----|

(0:50-1:08) They're tens, by the way.
F|--------------------------------------------------------------------------|
C|-----------10-10-10-------------------------------------------------------|
G|-6-5----------------------------------------------------------------------|
C|0-0--00-00----------------------------------------------------------------|

(1:08-to end)
F|---------------|            F|--------------|
C|----5h8-7------|            C|----5/7/8-----|       
G|---------------| (4 times)  G|--------------| (4 times)
C|0--0-----------|            C|0--0----------|

End on |-0-0-0~-|
Suggest correction
Give kudos to tab author, rate the tab!
1 2 3 4 5
comments
print report bad tab
guest
You may want to rate the tab now too:
select rating
Wanna post a correction for this tab? Suggest correction