Oops, an error
Loading. Please wait.

Collision Tab

version 1
version 1

Whole song

Interactive

6,547 views 3 this week
3 commentsread comments
1 2 3 4 5
accurate
x 4
add to favorites
launch autoscroll
font size
0
reset
how to read this tab
guitar tuner
Autoscroll
slow
fast
+/-
esc
set tempo
stop
Help us to improve Ultimate-Guitar.com Take our survey!
×
Author
-----------------------------------------------------------------------------
     Collision - As I Lay Dying
-----------------------------------------------------------------------------
Tabbed by: Brian Laughlin  
Email: aleman618@hotmail.com
Tuning: Drop-C  (CGCFAD)
Album: Falling Upon Deaf Ears 
**everything sounds pretty dead on, but email me if you got any corrections or comments, enjoy!**

Intro, pt. 1 (x4) 
----------------------------------------------------------------------------- 
----------------------------------------------------------------------------- 
------------------------------------------------------10-8-7-----------------
-0--------------------------------------12-10-8-7h8p7------------------------
-0-7h8p7-9-8-7-8--7h8p7-9-8-7-----7h8p7--------------------------------------
-0-----------------------------88--------------------------------------------
			             xx 

verse x5
-----------------------------------------------------------------------------
-----------------------------------------------------------------------------
-----------------------------------------------------------------------------
------------------7h8p7------------------------------------------------------
-------8-7-5------------8p7-------8-7-5--------------------------------------
-0-0-0-------0-00-----------0-0-0-------8-8-8----000-000---------------------
 x x x       x xx           x x x       x x x    xxx xxx


x4					x4
-----------------------------------------------------------------------------
-----------------------------------------------------------------------------
-----------------------------------------------------------------------------
----------------------------------------------6-7--------6h7----6h7----------
----7-8-7------7h8----7h8-------------------------7--------------------------
-00------h8--00-----00----------------------00-----h8--00-----00-------------
 xx      x   xx     xx                      xx      x  xx     xx


breakdown x2
-----------------------------------------------------------------------------
-----------------------------------------------------------------------------
-----------------------------------------------------------------------------
------------------7h8p7------------------------------------------------------
-------8-7-5------------8p7-------8-7-5--------------------------------------
-0-0-0-------0-00-----------0-0-0-------8-8-8----000-000---------------------
 x x x       x xx           x x x       x x x    xxx xxx 


x6
-----------------------------------------------------------------------------
-----------------------------------------------------------------------------
-----------------------------------------------------------------------------
-----------------------------------------------------------------------------
----7-8-7------7h8----7h8-----8-7----10-8-7-8--------------------------------
-00------h8--00-----00------00-----8-----------------------------------------
 xx      x   xx     xx      xx     x


x4
-----------------------------------------------------------------------------
-----------------------------------------------------------------------------
----14----12----15----14-----------------------------------------------------
----xx----xx----xx----xx-----------------------------------------------------
----12----10----13----12-----------------------------------------------------
-00----00----00----00-------------------------------------------------------- 
 xx    xx    xx    xx

x4					x4
-----------------------------------------------------------------------------
-----------------------------------------------------------------------------
----------------------------------------------------------------------------- 
----------------------------------------------6-7--------6h7----6h7----------
----7-8-7------7h8----7h8-------------------------7--------------------------
-00------h8--00-----00----------------------00-----h8--00-----00-------------
 xx      x   xx     xx                      xx      x  xx     xx


Intro x4 
-----------------------------------------------------------------------------
-----------------------------------------------------------------------------
------------------------------------------------------10-8-7-----------------
-0--------------------------------------12-10-8-7h8p7------------------------
-0-7h8p7-9-8-7-8--7h8p7-9-8-7-----7h8p7--------------------------------------
-0-----------------------------88--------------------------------------------
			             xx                              
			  
verse x5
-----------------------------------------------------------------------------
-----------------------------------------------------------------------------
-----------------------------------------------------------------------------
------------------7h8p7------------------------------------------------------
-------8-7-5------------8p7-------8-7-5--------------------------------------
-0-0-0-------0-00-----------0-0-0-------8-8-8----000-000---------------------
 x x x       x xx           x x x       x x x    xxx xxx
 
 
end x1
---------------
---------------
--------------- 
---------------
--------------- 
-0-0-0---0-000- 
 x x x   x xxx
Suggest correction
comments
print report bad tab
3 comments total.
0 reply
samdudeguy 10 wrote on October 26 2004, 12:00 am

Album: Falling Upon Deaf Ears?
isnt the album frail words collapse?

0 reply
Myrfnatr 31 wrote on May 1 2005, 12:00 am

Instead of this for the intro:
-----------------------------------------------------------------------------
-----------------------------------------------------------------------------
------------------------------------------------------10-8-7-----------------
-0--------------------------------------12-10-8-7h8p7------------------------
-0-7h8p7-9-8-7-8--7h8p7-9-8-7-----7h8p7--------------------------------------
-0-----------------------------88--------------------------------------------
xx

Try this:
-------------------------------------------------------------------------------
-------------------------------------------------------------------------------
---------------------------------------------------------------10-9-7------------
-0------------------------------------------10-8-7------7h8p7-------------------
-0-7h8p7-10-8-7-8--7h8p7-10-8-7------7h8p7---------10---------------------------
-0-------------------------------88---------------------------------------------

0 reply
gingerman17 10 wrote on June 26 2008, 04:19 pm

yeah instead of 9 8 7 its 10 8 7

guest
You may want to rate the tab now too:
select rating
Wanna post a correction for this tab? Suggest correction