Oops, an error
Loading. Please wait.

Collision Tab

version 2
version 2

Whole song

Interactive

14,451 views 12 this week
3 commentsread comments
1 2 3 4 5
excellent!
x 8
add to favorites
launch autoscroll
font size
0
reset
how to read this tab
guitar tuner
Autoscroll
slow
fast
+/-
esc
set tempo
stop
Help us to improve Ultimate-Guitar.com Take our survey!
×
Difficulty
intermediate
Song: Collision
Artist: As I Lay Dying
Album: Frail Words Collapse

Email: drhall@adelphia.net

Tuning: CGCFAD

Intro:

G1:
|-------------------------------------------------------------------|
|-------------------------------------------------------------------|
|------------------------------------------------------------10-9---|
|-0-------------------------------------------12-10x8-7h8p7------10-|
|-0-7h8p7-10-8-7-8----7h8p7-10-8-7------7h8p7-----------------------|
|-0----------------0---------------8--8-----------------------------|
                                      .
G2:                                                                    (4x)
|-------------------------------------------------------------------|
|-------------------------------------------------------------------|
|-----------------------------------------------------------10-9----|
|-0---------------------------------------------8-7x5-7h8p7------10-|
|-0-7h8p7-10-8-7-8----7h8p7-10-8-7-------7h8p7----------------------|
|-0----------------0---------------8--8-----------------------------|
                                      .
Pre-Verse:

G 1&2:
|-----------------------------------------------------|
|-----------------------------------------------------|
|-----------------------------------------------------|
|----------------5h7p5--------------------------------| (1x)
|-----8-7-5------------8-7-----8-7-5------------------|
|-000-------0-00-----------000-------8-88-1010101010--|
  ...       . ..           ...       . ..  . . . . .

Verse:

G1&2:
|--------------------------|----------------------------|
|--------------------------|----------------------------|
|--------------------------|----------------------------|
|-000-------0-00-5h7p5-----|-000-------8-88-1010101010--|
|-000-8-7-5-0-00-------8-7-|-000-8-7-5-8-88-1010101010--|
|-000-------0-00-----------|-000-------8-88-1010101010--|
  ...       . ..             ...       . .. ..........
G1&2:                                                     (4x)
|--------------------------|----------------------------|
|--------------------------|----------------------------|
|--------------------------|----------------------------|
|-000-------0-00-5h7p5-----|-000--------8-88--55555555--|
|-000-8-7-5-0-00-------8-7-|-000-8-7-5--8-88--55555555--|
|-000-------0-00-----------|-000--------8-88--55555555--|
  ...       . ..             ...        . ..  ........

Chorus thing:

G1&2:
|-----------------------------|-------------------------------|
|-----------------------------|-------------------------------|
|-----------------------------|-------------------------------|
|-----------------------------|-------------------------------| (2x)
|----7---8---7-----7h8----7h8-|----7---8---7-----7h8------7h8-|
|-00---0---0---8-8-----55-----|-00---0---0---8-8-----1010-----|
  ..   .   .     .     ..       ..   .   .     .      . .

G1:
|-----------------------------|-------------------------------|
|-----------------------------|-------------------------------|
|-----------------------------|-------------------------------|
|-----------------------------|-------------------------------| 
|----7---8---7-----7h8----7h8-|----7---8---7-----7h8------7h8-|
|-00---0---0---8-8-----55-----|-00---0---0---8-8-----1010-----|
  ..   .   .     .     ..       ..   .   .     .      . .
G2:                                                              (2x)
|-----------------------------|-------------------------------|
|-----------------------------|-------------------------------|
|-----------------------------|-------------------------------|
|----5---7---5-----5h7----5h7-|----5---7---5-----5h7------5h7-|
|-----------------------------|-------------------------------|
|-00---0---0---8-8-----55-----|-00---0---0---8-8-----1010-----|
  ..   .   .     .     ..       ..   .   .     .      . .

Verse:

G1&2:
|--------------------------|----------------------------|
|--------------------------|----------------------------|
|--------------------------|----------------------------|
|-000-------0-00-5h7p5-----|-000-------8-88-1010101010--|
|-000-8-7-5-0-00-------8-7-|-000-8-7-5-8-88-1010101010--|
|-000-------0-00-----------|-000-------8-88-1010101010--|
  ...       . ..             ...       . .. ..........
G1&2:                                                     (1x)
|--------------------------|----------------------------|
|--------------------------|----------------------------|
|--------------------------|----------------------------|
|-000-------0-00-5h7p5-----|-000--------8-88--55555555--|
|-000-8-7-5-0-00-------8-7-|-000-8-7-5--8-88--55555555--|
|-000-------0-00-----------|-000--------8-88--55555555--|
  ...       . ..             ...        . ..  ........

2nd Chorus thing:

G1&2:
|-----------------------------|------------------------------|
|-----------------------------|------------------------------|
|-----------------------------|------------------------------|
|-----------------------------|------------------------------| (6x)
|----8---7---------7h8----7h8-|----8---7------10---8---7---8-|
|-00---0---0-8--55-----77-----|-00---0---0-8-----8---8---8---|
  ..   .   .    ..     ..       ..   .   .       .   .   .

G1:
|-----------------------------|
|-----------------------------|
|-----------------------------|
|-----------------------------|
|----8---7---------7h8----7h8-|
|-00---0---0-8--55-----77-----|
  ..   .   .    ..     ..      
G2:                              (4x)                           
|-----------------------------|
|-----------------------------|
|----14-----12-----15-----14--|
|-----x------x------x------x--|
|----12-----10-----13-----12--|
|-00-----00-----00-----00-----|
  ..     ..     ..     ..

1st Chorus thing again:

G1&2:
|-----------------------------|-------------------------------|
|-----------------------------|-------------------------------|
|-----------------------------|-------------------------------|
|-----------------------------|-------------------------------| (2x)
|----7---8---7-----7h8----7h8-|----7---8---7-----7h8------7h8-|
|-00---0---0---8-8-----55-----|-00---0---0---8-8-----1010-----|
  ..   .   .     .     ..       ..   .   .     .      . .

G1:
|-----------------------------|-------------------------------|
|-----------------------------|-------------------------------|
|-----------------------------|-------------------------------|
|-----------------------------|-------------------------------| 
|----7---8---7-----7h8----7h8-|----7---8---7-----7h8------7h8-|
|-00---0---0---8-8-----55-----|-00---0---0---8-8-----1010-----|
  ..   .   .     .     ..       ..   .   .     .      . .
G2:                                                              (2x)
|-----------------------------|-------------------------------|
|-----------------------------|-------------------------------|
|-----------------------------|-------------------------------|
|----5---7---5-----5h7----5h7-|----5---7---5-----5h7------5h7-|
|-----------------------------|-------------------------------|
|-00---0---0---8-8-----55-----|-00---0---0---8-8-----1010-----|
  ..   .   .     .     ..       ..   .   .     .      . .


Intro:

G1:
|-------------------------------------------------------------------|
|-------------------------------------------------------------------|
|------------------------------------------------------------10-9---|
|-0-------------------------------------------12-10x8-7h8p7------10-|
|-0-7h8p7-10-8-7-8----7h8p7-10-8-7------7h8p7-----------------------|
|-0----------------0---------------8--8-----------------------------|
                                      .
G2:                                                                    (4x)
|-------------------------------------------------------------------|
|-------------------------------------------------------------------|
|-----------------------------------------------------------10-9----|
|-0---------------------------------------------8-7x5-7h8p7------10-|
|-0-7h8p7-10-8-7-8----7h8p7-10-8-7-------7h8p7----------------------|
|-0----------------0---------------8--8-----------------------------|
                                      .

Verse:

G1&2:
|--------------------------|----------------------------|
|--------------------------|----------------------------|
|--------------------------|----------------------------|
|-000-------0-00-5h7p5-----|-000-------8-88-1010101010--|
|-000-8-7-5-0-00-------8-7-|-000-8-7-5-8-88-1010101010--|
|-000-------0-00-----------|-000-------8-88-1010101010--|
  ...       . ..             ...       . .. ..........
G1&2:                                                     (2x)
|--------------------------|----------------------------|
|--------------------------|----------------------------|
|--------------------------|----------------------------|
|-000-------0-00-5h7p5-----|-000--------8-88--55555555--|
|-000-8-7-5-0-00-------8-7-|-000-8-7-5--8-88--55555555--|
|-000-------0-00-----------|-000--------8-88--55555555--|
  ...       . ..             ...        . ..  ........

end on:

|------------|
|------------|
|------------|
|-000-0-0-00-|
|-000-0-0-00-|
|-000-0-0-00-|
  ... . . ..


Tab Key:

. =palm mute
x =mute
h =hammer
p =pull off

Suggest correction
What's this?
You can suggest a correction to this tab. Community and Mods will review your correction and vote to approve or reject it.
comments
print report bad tab
3 comments total.
0 reply
slinkar3 40 wrote on August 22 2008, 01:25 am

sick as F*** dude, i love it!
really good tab!
i wish i could figure song out this good, u rock, and i rock to this song, and im drunk writing this write now! ahahaha

0 reply
jackSonisTHEsHi 87 wrote on July 23 2009, 03:26 pm

I LOVE U! this song is pretty easy suprisingly

0 reply
Jsparky 11 wrote on July 28 2010, 10:18 pm

dude I dig it intensly I love how you did it its just you got some parts that are just a little off sounding but overall awesome tab

guest
You may want to rate the tab now too:
select rating
Please do not post tabs as comments. Select "correction" instead!