Oops, an error
Loading. Please wait.

Comfort Betrays Tab

version 1
version 1

Solo

Whole song

Interactive

1,447 views 1 this week
1 commentread comment
1 2 3 4 5
worth learning
x 1
add to favorites
launch autoscroll
font size
0
reset
how to read this tab
guitar tuner
Tab Pro tools
  • play this tab
  • loop segment
  • change instrument
  • show fretboard
  • metronome
Autoscroll
slow
fast
+/-
esc
set tempo
stop
Contributor
Difficulty
intermediate
This was pretty tough to tab, 
but i noticed on the other tab people had been asking for the solo

I think it's in drop Db so i tabbed it that way

but to play it in drop C you just have to move up one fret
 

 

Gtr I (Db Ab Db Gb Bb Eb) - 'Lead'
Gtr II (Db Ab Db Gb Bb Eb) - 'Rhythm'


  Q=172
  Gtr I
   S  S  S  S  S  S  S  S  S  S  S  S  S  S  S  S
|-------------------------------------------------|
|----------13-15-13-10-13----------13-15-13-10-13-|
|-------14----------------------14----------------|
|-12-15-------------------12-15-------------------|
|-------------------------------------------------|
|-------------------------------------------------|
|
| Gtr II
|  S  S  S  S  S  S  S  S  S  S  S  S  S  S  S  S
|-------------------------------------------------|
|-------------------------------------------------|
|-------------------------------------------------|
|-------------------------------------------------|
|-------------------------------------------------|
|--0--0--0--0--0--0--0--0--0--0--0--0--0--0--0--0-|


   S  S  S  S  S  S  S  S  S  S  S  S  S  S  S  S
|-------------------------------------------------|
|----------13-15-13-10-13-15-13----------------13-|
|-------14----------------------14----------14----|
|-12-15----------------------------15-12-15-------|
|-------------------------------------------------|
|-------------------------------------------------|
|
|  S  S  S  S  S  S  S  S  S  S  E     E     E
|-------------------------------------------------|
|-------------------------------------------------|
|-------------------------------------------------|
|--------------------------------8-----5-----8----|
|--------------------------------6-----3-----6----|
|--0--0--0--0--0--0--0--0--0--0-------------------|


   T           T           T           T
   S  S  S  S  S  S  S  S  S  S  S  S  S  S  S  S
|-------------------------------------------------|
|-16-13-10-13-15-13-10-13-20-13-10-13-19-13-10-13-|
|-------------------------------------------------|
|-------------------------------------------------|
|-------------------------------------------------|
|-------------------------------------------------|
|
|  E     S  S  S  S  S  S  S  S  S  S  S  S  S  S
|-------------------------------------------------|
|-------------------------------------------------|
|-------------------------------------------------|
|--7----------------------------------------------|
|--5----------------------------------------------|
|--------0--0--0--0--0--0--0--0--0--0--0--0--0--0-|

You might have to tap and bend the 18b20

   T           T
   S  S  S  S  S  S  S  S  H
|-------------------------18b20----------|
|-22-13-10-13-19-13-10-13----------------|
|----------------------------------------|
|----------------------------------------|
|----------------------------------------|
|----------------------------------------|
|
|  S  S  S  S  S  S  S  S  S    S  E E E
|----------------------------------------|
|----------------------------------------|
|----------------------------------------|
|---------------------------------11-8-5-|
|----------------------------------9-6-3-|
|--0--0--0--0--0--0--0--0--0----0--------|


   S  S  S  S  S  S  S  S  S  S  S  S  S  S  S  S
|-------------------------------------------------|
|-19-20-19-16-19-16-------------------------------|
|-------------------19-17-19-17-14-17-14-12-14-12-|
|-------------------------------------------------|
|-------------------------------------------------|
|-------------------------------------------------|
|
|  S  S  S  S  S  S  S  S  S  S  S  S  S  S  S  S
|-------------------------------------------------|
|-------------------------------------------------|
|-------------------------------------------------|
|-------------------------------------------------|
|-------------------------------------------------|
|--0--0--0--0--0--0--0--0--0--0--0--0--0--0--0--0-|


   S  S  S  S  S  S  S  S  H
|------------------------------------|
|------------------------------------|
|-------------------------11---------|
|-12-13-12-10-12-10------------------|
|-------------------12-10------------|
|------------------------------------|
|
|  S  S  S  S  S  S  S  S  S S E E E
|------------------------------------|
|------------------------------------|
|------------------------------------|
|------------------------------8-5-8-|
|------------------------------6-3-6-|
|--0--0--0--0--0--0--0--0--0-0-------|


   T           T     T           T     T
   S  S  S  S  S  S  S  S  S  S  S  S  S  S  S  S
|-------------------------------------------------|
|-19-15-13-15-20-15-19-15-13-15-20-15-19-15-13-15-|
|-------------------------------------------------|
|-------------------------------------------------|
|-------------------------------------------------|
|-------------------------------------------------|
|
|  E     S  S  S  S  S  S  S  S  S  S  S  S  S  S
|-------------------------------------------------|
|-------------------------------------------------|
|-------------------------------------------------|
|--7----------------------------------------------|
|--5----------------------------------------------|
|--------0--0--0--0--0--0--0--0--0--0--0--0--0--0-|


   |-------3-------|      |-----3------|
   Q      Q        Q      Q       Q    Q
|-15-----14-------11------------------------|
|------------------------15------13---------|
|-------------------------------------12----|
|-------------------------------------------|
|-------------------------------------------|
|-------------------------------------------|
|
|  S S S    S S S    S S  S S  E    E    E
|-------------------------------------------|
|-------------------------------------------|
|-------------------------------------------|
|-----------------------------11----8----5--|
|------------------------------9----6----3--|
|--0-0-0----0-0-0----0-0--0-0---------------|


                                     PM-----------------------|
   H               H                 E    E   E   E   E   E E E
|----------------------------------|----------------------------|
|----------------------------------|----------------------------|
|-14---------------7---------------|----------------------------|
|----------------------------------|-8---10---7---8---7---0-7-8-|
|----------------------------------|----------------------------|
|----------------------------------|----------------------------|
|
|  S S S S S S S S S S S S S S S S   S S  S S S S S S S S E E E
|----------------------------------|----------------------------|
|----------------------------------|----------------------------|
|----------------------------------|----------------------------|
|----------------------------------|----------------------8-5-8-|
|----------------------------------|----------------------6-3-6-|
|--0-0-0-0-0-0-0-0-0-0-0-0-0-0-0-0-|-0-0--0-0-0-0-0-0-0-0-------|


  W                               +E  E E E  Q    E E
|-------------------------------|-----------------------------------|
|-------------------------------|-----------------------------------|
|-------------------------------|-----8-7-8-12---11-----------------|
|-------------------------------|-----------------------------------|
|-5-----------------------------|-(5)-------------------------------|
|-------------------------------|-----------------------------------|
|
| E S S S S S S S S S S S S S S    S  S S S  S S  S S S S  E E E
|-------------------------------|-----------------------------------|
|-------------------------------|-----------------------------------|
|-------------------------------|-----------------------------------|
|-7-----------------------------|-------------------------11-8-5----|
|-5-----------------------------|--------------------------9-6-3----|
|---0-0-0-0-0-0-0-0-0-0-0-0-0-0-|--0--0-0-0--0-0--0-0-0-0-----------|


   W                                  +E   E  E  E  Q    E E
|----------------------------------|--------------------------------------|
|----------------------------------|--------------------------------------|
|-14-------------------------------|-(14)-15-14-15-19---18----------------|
|----------------------------------|--------------------------------------|
|----------------------------------|--------------------------------------|
|----------------------------------|--------------------------------------|
|
|  S S S S S S S S S S S S S S S S     S   S  S  S  S S  S S S S E E E
|----------------------------------|--------------------------------------|
|----------------------------------|--------------------------------------|
|----------------------------------|--------------------------------------|
|----------------------------------|-----------------------------8-5-8----|
|----------------------------------|-----------------------------6-3-6----|
|--0-0-0-0-0-0-0-0-0-0-0-0-0-0-0-0-|---0---0--0--0--0-0--0-0-0-0----------|

On the 14, slow dive with your whammy and then come back up

   W                                +W
|--------------------------------|----------------------------------|
|--------------------------------|----------------------------------|
|-14-----------------------------|-(14)-----------------------------|
|--------------------------------|----------------------------------|
|--------------------------------|----------------------------------|
|--------------------------------|----------------------------------|
|
|  E S S S S S S S S S S S S S S     S  S S S S S S S S S  E E E
|--------------------------------|----------------------------------|
|--------------------------------|----------------------------------|
|--------------------------------|----------------------------------|
|--7-----------------------------|------------------------11-8-5----|
|--5-----------------------------|-------------------------9-6-3----|
|----0-0-0-0-0-0-0-0-0-0-0-0-0-0-|---0--0-0-0-0-0-0-0-0-0-----------|



That's it
please rate and comment
comments
We did not receive enough feedback on this tab! Please rate:
print report bad tab
1 2 3 4 5
1 comment total.
0 reply
Soulgrind025 wrote on June 8 2008, 01:58 am

Nice try, but you were off quite a bit. They use tapping instead of arpeggios on the first part. Im going to add a Guitar Pro version of the solo. Good try though. Hard solo to sound out.

I want to post or [tab]
guest
You may want to rate the tab now too:
select rating
Please do not post tabs as comments. Select "correction" instead!