Oops, an error
Loading. Please wait.
We have an official Confined tab made by UG professional guitarists. Check out the tab »
×
5,334 views 3 this week
3 commentsread comments
1 2 3 4 5
1 last vote to show rating
add to favorites
×
Save as Personal and add changes to this tab that will be seen only by you. Learn more ›
×
You can save this tab as Personal to edit and correct it or add notes. All changes will be seen only by you. Learn more »
launch autoscroll
font size
0
reset
guitar tuner
backing track
0:00
0:00
edit
Autoscroll
slow
fast
+/-
esc
set tempo
stop
This is my first tab, so we'll see how it turns out
This song is kinda fast so i put times to help
You might have to listen to it a couple times to get the timing


(come in at 0:15)
F|---------------------------------------------------|
C|---------------------------------------------------|
G|---------------------------------------------------|
C|-0~----------0~----------0~----------0~------------|

(chug open from 0:25 to 0:36)
F|---------------------------------------------------|
C|---------------------------------------------------|
G|---------------------------------------------------|
C|-0000000000000000000000000000000000000000000000000-|

(0:36 to 0:58)
F|---------------------------------------------------|
C|---------------------------------------------------|x4
G|---------------------------------------------------|
C|-00----000----000000--00----000----000000----------|

(fast... 0:58 to 1:21)
F|---------------------------------------------------|
C|---------------------------------------------------|x4
G|---------------------------------------------------|
C|-000000--3-2--000--5-3--000--8-7-5-7-5-3-0---------|

(1:21 to 1:43)
F|---------------------------------------------------|
C|---------------------------------------------------|x3
G|---------------------------------------------------|
C|-8~--5~--000000000000--33333--55555--000000000000--|

(1:43 to 1:46)
F|---------------------------------------------------|
C|---------------------------------------------------|
G|---------------------------------------------------|
C|-8~--7--5~-----------------------------------------|

(chug open from 1:46 to 1:57)
F|---------------------------------------------------|
C|---------------------------------------------------|
G|---------------------------------------------------|
C|-000000000000000000000000000000000000000000000000--|

(1:57 to 2:07)
F|-------I HAVE NO IDEA WHAT THIS PART IS------------|
C|-----I HAVE NO IDEA WHAT THIS PART IS--------------|
G|---I HAVE NO IDEA WHAT THIS PART IS----------------|
C|-I HAVE NO IDEA WHAT THIS PART IS------------------|

(2:07 to 2:30)
F|---------------------------------------------------|
C|---------------------------------------------------|x2
G|---------------------------------------------------|
C|-8~--5~--000000000000--33333--55555--000000000000--|

(2:30 to 2:33)
F|---------------------------------------------------|
C|---------------------------------------------------|
G|---------------------------------------------------|
C|-8~--7--5~-----------------------------------------|

(2:33 to 2:55)(4th time let last note ring)
F|---------------------------------------------------|
C|---------------------------------------------------|x4
G|---------------------------------------------------|
C|-00000000000000000000--8-7--5-7--5-3-0(~)----------|


Thats it...have fun

            
            
Suggest correction
Creating personal tab
Creating personal tab
You can edit any tab online and save it as your Personal.

You can edit, replace or remove any tab part or add personal notes – all changes will be seen only by you.

Personal tabs can be accessed anytime from any device, even offline.
Learn more »
Give kudos to tab author, rate the tab!
1 2 3 4 5
comments
print report bad tab
3 comments total.
0 reply
BoomerSoooner 51 Apr 28, 2006 09:05 AM

You gotta vote for mine now. Just Like You powertab ver 2

0 reply
unionrocks16 10 Jul 03, 2007 08:13 AM

did you know that they used a five string bass in this song?
sorry to say.

0 reply
Emericask8r3506 155 Jul 05, 2007 09:54 AM

nope. i didn't know that.
i just watched the music video on yahoo and he had a 4 string.
so i tabbed it in 4.
why would they use a 5 string and tune UP?

guest
You may want to rate the tab now too:
select rating
Wanna post a correction for this tab? Suggest correction