Oops, an error
Loading. Please wait.

Empty Hearts bass

version 1
version 1

Whole song

Interactive

712 views 1 this week
no commentswrite comment
1 2 3 4 5
3 more votes to show rating
add to favorites
×
Save as Personal and add changes to this tab that will be seen only by you. Learn more ›
×
You can save this tab as Personal to edit and correct it or add notes. All changes will be seen only by you. Learn more »
launch autoscroll
font size
0
reset
guitar tuner
edit
Autoscroll
slow
fast
+/-
esc
set tempo
stop
                                 Empty Hearts                                   


                                As I Lay Dying
Tabbed By-Trevor Winchenbaugh
Email-ZeroSkater7286@aol.com
AIM-AoA Avenge SOB



     S S S S S S S S S S E  E  E     S S S S S S S S S S E  E  E   
F||-------------------------------|-------------------------------|
C||-------------------------------|-------------------------------|
G||-------------------------------|-------------------------------|
C||--1-4-0-0-3-0-1-3-0-0-3--0--0--|--1-4-0-0-3-0-1-3-0-0-3--0--0--|


  S S S S S S S S S S E  E  E     S S S S S S S S S S E  Q     
-------------------------------|------------------------------|
-------------------------------|------------------------------|
-------------------------------|------------------------------|
--1-4-0-0-3-0-1-3-0-0-3--0--0--|--1-4-0-0-3-0-1-3-0-0-3--0----|


  S S S S S S S S S S E  E  E     S S S S S S S S S S E  E  E   
-------------------------------|-------------------------------|
-------------------------------|-------------------------------|
-------------------------------|-------------------------------|
--1-4-0-0-3-0-1-3-0-0-3--0--0--|--1-4-0-0-3-0-1-3-0-0-3--0--0--|


  S S S S S S S S S S E  E  E     S S S S S S S S S S E  Q     
-------------------------------|------------------------------|
-------------------------------|------------------------------|
-------------------------------|------------------------------|
--1-4-0-0-3-0-1-3-0-0-3--0--0--|--1-4-0-0-3-0-1-3-0-0-3--0----|


  S S S S E  S S S S E  E  E     S S S S E  S S S S E  E  E   
------------------------------|------------------------------|
------------------------------|------------------------------|
------------------------------|------------------------------|
--0-0-0-0----0-0-0-0----0--0--|--0-0-0-0----0-0-0-0----0--0--|


  S S S S E  S S S S E  E  E     S S S S E  S S S S E  E  E   
------------------------------|------------------------------|
------------------------------|------------------------------|
------------------------------|------------------------------|
--0-0-0-0----0-0-0-0----0--0--|--0-0-0-0----0-0-0-0----0--0--|


  S S S S E  S S S S E  E  E     S S S S E  S S S S E  E  E   
------------------------------|------------------------------|
------------------------------|------------------------------|
------------------------------|------------------------------|
--0-0-0-0----0-0-0-0----0--0--|--0-0-0-0----0-0-0-0----0--0--|


  S S S S E  S S S S E  E  E     S S S S E  S S S S E  E  E   
------------------------------|------------------------------|
------------------------------|------------------------------|
------------------------------|------------------------------|
--0-0-0-0----0-0-0-0----0--0--|--0-0-0-0----0-0-0-0----0--0--|


  W                   H        S S S S S S S S          
-------------------|---------------------------|-------|
-------------------|---------------------------|-------|
-------------------|---------------------------|-------|
--0----------------|--L--------0-0-0-0-0-0-0-0-|-------|


  H        S S S S S S S S    W                   H        S S S S S S S S  
---------------------------|-------------------|---------------------------|
---------------------------|-------------------|---------------------------|
---------------------------|-------------------|---------------------------|
-----------0-0-0-0-0-0-0-0-|--0----------------|--L--------0-0-0-0-0-0-0-0-|


          H        S S S S S S S S    E  E  E  E  S S E  S S E   
-------|---------------------------|----------------------------|
-------|---------------------------|----------------------------|
-------|---------------------------|--5-------------------------|
-------|-----------0-0-0-0-0-0-0-0-|-----0--0--0--0-0-0--0-0-0--|


  E  E  E  E  E  E  E  E     E  E  E  E  S S E  S S E   
--------------------------|----------------------------|
--------------------------|----------------------------|
--5--------------------6--|--5-------------------------|
-----0--0--6--0--3--0-----|-----0--0--0--0-0-0--0-0-0--|


  E  E  E  E  E  E  E  E     E  E  E  E  S S E  S S E   
--------------------------|----------------------------|
--------------------------|----------------------------|
--5--------------------6--|--5-------------------------|
-----0--0--6--0--3--0-----|-----0--0--0--0-0-0--0-0-0--|


  E  E  E  E  E  E  E  E     E  E  E  E  S S E  S S E   
--------------------------|----------------------------|
--------------------------|----------------------------|
--------------------------|----------------------------|
--8--0--0--7--0--4--0--1--|--0--0--0--0--0-0-0--0-0-0--|


  E  E  E  E  E  E  E  E     E  E  E  E  S S E  S S E   
--------------------------|----------------------------|
--------------------------|----------------------------|
--5--------------------6--|--5-------------------------|
-----0--0--6--0--3--0-----|-----0--0--0--0-0-0--0-0-0--|


  E  E  E  E  E  E  E  E     E  E  E  E  S S E  S S E   
--------------------------|----------------------------|
--------------------------|----------------------------|
--5--------------------6--|--5-------------------------|
-----0--0--6--0--3--0-----|-----0--0--0--0-0-0--0-0-0--|


  E  E  E  E  E  E  E  E     E  E  E  E  S S E  S S E   
--------------------------|----------------------------|
--------------------------|----------------------------|
--5--------------------6--|--5-------------------------|
-----0--0--6--0--3--0-----|-----0--0--0--0-0-0--0-0-0--|


  E  E  E  E  E  E  E  E     E  E  E  E  S S E  S S E   
--------------------------|----------------------------|
--------------------------|----------------------------|
--------------------------|----------------------------|
--8--0--0--7--0--4--0--1--|--0--0--0--0--0-0-0--0-0-0--|


  E  E  E  E  E  E  E  E     E  E  H.                            
--------------------------|---------------------|---------------|
--------------------------|---------------------|---------------|
--5--------------------6--|---------------------|---------------|
-----0--0--6--0--3--0-----|--0--0---------------|---------------|


  E  E  H.              E  E  E  E  E  E  E  E     E  E  E  E  S S E  S S E   
---------------------|--------------------------|----------------------------|
---------------------|--------------------------|----------------------------|
---------------------|--------------------------|----------------------------|
--0--0---------------|--1--4--0--3--0--0--0--6--|--4--1--0--0--0-0-0--0-0-0--|


  E  E  E  E  E  E  E  E     E  E  E  E  S S E  S S E   
--------------------------|----------------------------|
--------------------------|----------------------------|
--------------------------|----------------------------|
--4--1--0--3--0--0--0--1--|--4--1--0--0--0-0-0--0-0-0--|


  E  E  E  E  E  E  E  E     E  E  E  E  S S E  S S E   
--------------------------|----------------------------|
--------------------------|----------------------------|
--------------------------|----------------------------|
--1--4--0--3--0--0--0--6--|--4--1--0--0--0-0-0--0-0-0--|


  E  E  E  E  E  E  E  E     E  E  E  E  S S E  S S E   
--------------------------|----------------------------|
--------------------------|----------------------------|
--------------------------|----------------------------|
--4--1--0--3--0--0--0--1--|--4--1--0--0--0-0-0--0-0-0--|


  E  E  E  E  E  E  E  E     E  E  E  E  S S E  S S E   
--------------------------|----------------------------|
--------------------------|----------------------------|
--------------------------|----------------------------|
--1--4--0--3--0--0--0--6--|--4--1--0--0--0-0-0--0-0-0--|


  E  E  E  E  E  E  E  E     E  E  E  E  S S E  S S E   
--------------------------|----------------------------|
--------------------------|----------------------------|
--------------------------|----------------------------|
--4--1--0--3--0--0--0--1--|--4--1--0--0--0-0-0--0-0-0--|


  E  E  E  E  E  E  E  E     E  E  E  E  S S E  S S E   
--------------------------|----------------------------|
--------------------------|----------------------------|
--------------------------|----------------------------|
--1--4--0--3--0--0--0--6--|--4--1--0--0--0-0-0--0-0-0--|


  E  E  E  E  E  E  E  E     E  E  E  E  S S E  S S E   
--------------------------|----------------------------|
--------------------------|----------------------------|
--------------------------|----------------------------|
--4--1--0--3--0--0--0--1--|--4--1--0--0--0-0-0--0-0-0--|


  E  E  E  E  E  E  E  E     E  E  E  E  S S E  S S E   
--------------------------|----------------------------|
--------------------------|----------------------------|
--------------------------|--5-------------------------|
--1--4--0--3--0--0--0--6--|-----0--0--0--0-0-0--0-0-0--|


  E  E  E  E  E  E  E  E     E  E  E  E  S S E  S S E   
--------------------------|----------------------------|
--------------------------|----------------------------|
--5--------------------6--|--5-------------------------|
-----0--0--6--0--3--0-----|-----0--0--0--0-0-0--0-0-0--|


  E  E  E  E  E  E  E  E     E  E  E  E  S S E  S S E   
--------------------------|----------------------------|
--------------------------|----------------------------|
--5--------------------6--|--5-------------------------|
-----0--0--6--0--3--0-----|-----0--0--0--0-0-0--0-0-0--|


  E  E  E  E  E  E  E  E     E  E  E  E  S S E  S S E   
--------------------------|----------------------------|
--------------------------|----------------------------|
--------------------------|----------------------------|
--8--0--0--7--0--4--0--1--|--0--0--0--0--0-0-0--0-0-0--|


  E  E  E  E  E  E  E  E     E  E  E  E  S S E  S S E   
--------------------------|----------------------------|
--------------------------|----------------------------|
--5--------------------6--|--5-------------------------|
-----0--0--6--0--3--0-----|-----0--0--0--0-0-0--0-0-0--|


  E  E  E  E  E  E  E  E     E  E  E  E  S S E  S S E   
--------------------------|----------------------------|
--------------------------|----------------------------|
--5--------------------6--|--5-------------------------|
-----0--0--6--0--3--0-----|-----0--0--0--0-0-0--0-0-0--|


  E  E  E  E  E  E  E  E     E  E  E  E  S S E  S S E   
--------------------------|----------------------------|
--------------------------|----------------------------|
--5--------------------6--|--5-------------------------|
-----0--0--6--0--3--0-----|-----0--0--0--0-0-0--0-0-0--|


  E  E  E  E  E  E  E  E     E  E  E  E  S S E  S S E   
--------------------------|----------------------------|
--------------------------|----------------------------|
--------------------------|----------------------------|
--8--0--0--7--0--4--0--1--|--0--0--0--0--0-0-0--0-0-0--|


  E  E  E  E  E  E  E  E     E  E  E  E  S S E  S S E   
--------------------------|----------------------------|
--------------------------|----------------------------|
--5--------------------6--|--5-------------------------|
-----0--0--6--0--3--0-----|-----0--0--0--0-0-0--0-0-0--|


  E  E  E  E  E  E  E  E     E  E  E  E  S S E  S S E   
--------------------------|----------------------------|
--------------------------|----------------------------|
--5--------------------6--|--5-------------------------|
-----0--0--6--0--3--0-----|-----0--0--0--0-0-0--0-0-0--|


  E  E  E  E  E  E  E  E     E  E  E  E  S S E  S S E   
--------------------------|----------------------------|
--------------------------|----------------------------|
--5--------------------6--|--5-------------------------|
-----0--0--6--0--3--0-----|-----0--0--0--0-0-0--0-0-0--|


  E  E  E  E  E  E  E  E     E  E  E  E  S S E  S S E   
--------------------------|----------------------------|
--------------------------|----------------------------|
--------------------------|----------------------------|
--8--0--0--7--0--4--0--1--|--0--0--0--0--0-0-0--0-0-0--|


  E  E  E  E  E  E  E  E     E  E  E  E  S S E  S S E   
--------------------------|----------------------------|
--------------------------|----------------------------|
--5--------------------6--|--5-------------------------|
-----0--0--6--0--3--0-----|-----0--0--0--0-0-0--0-0-0--|


  E  E  E  E  E  E  E  E     E  E  E  E  S S E  S S E   
--------------------------|----------------------------|
--------------------------|----------------------------|
--5--------------------6--|--5-------------------------|
-----0--0--6--0--3--0-----|-----0--0--0--0-0-0--0-0-0--|


  E  E  E  E  E  E  E  E     E  E  E  E  S S E  S S E   
--------------------------|----------------------------|
--------------------------|----------------------------|
--5--------------------6--|--5-------------------------|
-----0--0--6--0--3--0-----|-----0--0--0--0-0-0--0-0-0--|


  E  E  E  E  E  E  E  E     E  E  E  E  S S E  S S E   
--------------------------|----------------------------|
--------------------------|----------------------------|
--------------------------|----------------------------|
--8--0--0--7--0--4--0--1--|--0--0--0--0--0-0-0--0-0-0--|


  E  E  E  E  E  E  E  E     S S S S H        Q             
--------------------------|------------------------|-------|
--------------------------|------------------------|-------|
--5--------------------6--|------------------------|-------|
-----0--0--6--0--3--0-----|--0-0-0-0-0-------------|-------|


  S S S S H        Q               S S S S H        Q             
------------------------|-------|------------------------|-------|
------------------------|-------|------------------------|-------|
------------------------|-------|------------------------|-------|
--0-0-0-0-0-------------|-------|--0-0-0-0-0-------------|-------|


  S S S S H        Q               S S S S E  Q    E  E  E   
------------------------|-------|---------------------------|
------------------------|-------|---------------------------|
------------------------|-------|---------------------------|
--0-0-0-0-0-------------|-------|--0-0-0-0-0-------0-----0--|


  E  S S E  E  S S S S E  E     S S S S E  Q    E  E  E   
-----------------------------|---------------------------|
-----------------------------|---------------------------|
-----------------------------|---------------------------|
-----0-0-0-----0-0-0-0-0-----|--0-0-0-0-0-------0-----0--|


  E  S S E  E  S S S S E  E     S S S S E  Q    E  E  E   
-----------------------------|---------------------------|
-----------------------------|---------------------------|
-----------------------------|---------------------------|
-----0-0-0-----0-0-0-0-0-----|--0-0-0-0-0-------0-----0--|


  E  S S E  E  S S S S E  E     S S S S E  Q    E  E  E   
-----------------------------|---------------------------|
-----------------------------|---------------------------|
-----------------------------|---------------------------|
-----0-0-0-----0-0-0-0-0-----|--0-0-0-0-0-------0-----0--|


  E  S S E  E  S S S S E  E     S S S S E  Q    E  E  E   
-----------------------------|---------------------------|
-----------------------------|---------------------------|
-----------------------------|---------------------------|
-----0-0-0-----0-0-0-0-0-----|--0-0-0-0-0-------0-----0--|


  E  S S E  E  S S S S E  E     S S S S E  Q    E  E  E   
-----------------------------|---------------------------|
-----------------------------|---------------------------|
-----------------------------|---------------------------|
-----0-0-0-----0-0-0-0-0-----|--0-0-0-0-0-------0-----0--|


  E  S S E  E  S S S S E  E     S S S S E  Q    E  E  E   
-----------------------------|---------------------------|
-----------------------------|---------------------------|
-----------------------------|---------------------------|
-----0-0-0-----0-0-0-0-0-----|--0-0-0-0-0-------0-----0--|


  E  S S E  E  S S S S E  E     S S S S E  Q    E  E  E   
-----------------------------|---------------------------|
-----------------------------|---------------------------|
-----------------------------|---------------------------|
-----0-0-0-----0-0-0-0-0-----|--0-0-0-0-0-------0-----0--|


                                |--3--|                                        
  E  S S E  E  S S S S E  E     E  E  E  E  H        E                         
-----------------------------|--------------------------|-----|-------|-------|
-----------------------------|--------------------------|-----|-------|-------|
-----------------------------|--------------------------|-----|-------|-------|
-----0-0-0-----0-0-0-0-0-----|--0--0--0--0--------------|-----|-------|-------|


-------|-------|-------|-------|-------|-------|-------||
-------|-------|-------|-------|-------|-------|-------||
-------|-------|-------|-------|-------|-------|-------||
-------|-------|-------|-------|-------|-------|-------||




Duration Legend
---------------
W - whole
H - half
Q - quarter
E - 8th
S - 16th
T - 32nd
X - 64th
. - note dotted
|-n-|  - n-tuplets


Tablature Legend
----------------
L - tied note
x - dead note
g - grace note
(n) - ghost note
> - accentuded note
NH - natural harmonic
AH - artificial harmonic
TH - tapped harmonic
SH - semi harmonic
PH - pitch harmonic
h - hammer on
p - pull off
b - bend
br - bendRelease
pb - preBend
pbr - preBendRelease
brb - bendReleaseBend
\n/ - tremolo bar dip
\n - tremolo bar dive
-/n - tremolo bar Release up
/n\ - tremolo bar inverted dip
/n - tremolo bar return
-\n - tremolo bar Release down
S - shift slide
s - legato slide
/ -  slide into from below or out of upwards
\ -  slide into from above or out of downwards
~ - vibrato
W - wide vibrato
tr - trill
TP - tremolo picking
T - tapping
S - slap
P - pop
< - fade in
^ - brush up
v - brush down

            
            
Suggest correction
Creating personal tab
Creating personal tab
You can edit any tab online and save it as your Personal.

You can edit, replace or remove any tab part or add personal notes – all changes will be seen only by you.

Personal tabs can be accessed anytime from any device, even offline.
Learn more »
Give kudos to tab author, rate the tab!
1 2 3 4 5
comments
print report bad tab
guest
You may want to rate the tab now too:
select rating
Wanna post a correction for this tab? Suggest correction