Oops, an error
Loading. Please wait.

Empty Hearts solo tab

version 1
version 1

Solo

Whole song

Interactive

2,699 views 1 this week
7 commentsread comments
1 2 3 4 5
x 4
add to favorites
×
Save as Personal and add changes to this tab that will be seen only by you. Learn more ›
×
You can save this tab as Personal to edit and correct it or add notes. All changes will be seen only by you. Learn more »
launch autoscroll
font size
0
reset
how to read this tab
guitar tuner
edit
Autoscroll
slow
fast
+/-
esc
set tempo
stop
ahh I seriously couldn't wait anymore for sumone to tab this solo out
so i finally did it this is for sure 99.9% right....sounds perfect at least

tip:if ur kinda new to these fast solos like me....Play it SLOW

until u got it memorized then speed it up!

alrite have fun....let me kno how it is

and all that good stuff


*edit*- thanks "RandomHeroJr." ur right about the tapping, makes it easy too lol



|------------------------------------------------------------------|
|------------------------------------------------------------------|
|-12-11-12--14-12-11--12-11-12-15-13-12--12-11-12--14-13-12--------|
|-----------------------------------------------------------12~----|
|------------------------------------------------------------------|
|------------------------------------------------------------------|


    
                                  

|--11-8-11--14-11-8--11-8-11--14-11-8--11-10-8--10-8--------------------|
|-----------------------------------------------------11-10~------------|
|-----------------------------------------------------------------------|
|-----------------------------------------------------------------------|
|-----------------------------------------------------------------------|
|-----------------------------------------------------------------------|



  T       T       T       T       T       T
|--------------------------------------------------------------|
|-12-7-8--14-7-8--15-7-8--14-7-8--19-7-8--17-7-8--15~----------|
|--------------------------------------------------------------|
|--------------------------------------------------------------|
|--------------------------------------------------------------|
|--------------------------------------------------------------|




use wt ever fret u want for the harmonic, they all sound good to me  
|----------------------------------------------------|
|----------------------------------------------------|
|----------------------------------------------------|cant really this part.
|--8-7-5--------------------------------------7*~----| listen closely
|--------8-7-5--5-7-10--10-7-5--8-7-5-8-7-5----------|
|----------------------------------------------------|





|----------------------------------------------------|
|--8~--7-8-10~--8-10-11~--10-11-13~----13p11p10------|
|----------------------------------------------------|
|----------------------------------------------------|
|----------------------------------------------------|
|----------------------------------------------------|





|----------------------------------------------------|
|----------------------------------------------------|
|----------------------------------------------------|
|--13-12-10---------------12-14-15-------------------|
|-------------10-12-13-------------------------------|
|----------------------------------------------------|




                             OR 
|-----------11p10p8p--15-14~-|---------------------15-14~--|
|--11p10p8-------------------|-----------16-15-13----------|
|----------------------------|--15-14-12-------------------|
|----------------------------|-----------------------------|
|----------------------------|-----------------------------|
|----------------------------|-----------------------------|





(tremlo pick about 4 per note)

|--20"--18"--17"--18"--17"--15"--14"----------------|
|-------------------------------------16"-----------|
|---------------------------------------------------|
|---------------------------------------------------|
|---------------------------------------------------|
|---------------------------------------------------|





|--14p11p10--11p10p8--10p8p6--8p6p5--2~/10~*--------|
|---------------------------------------------------|
|---------------------------------------------------|
|---------------------------------------------------|
|---------------------------------------------------|
|---------------------------------------------------|


AILY=the bomb

            
            
Suggest correction
Creating personal tab
Creating personal tab
You can edit any tab online and save it as your Personal.

You can edit, replace or remove any tab part or add personal notes – all changes will be seen only by you.

Personal tabs can be accessed anytime from any device, even offline.
Learn more »
comments
print report bad tab
7 comments total. Showing first comments.
0 reply
RandomHeroJr 41 Jul 29, 2006 10:47 AM

|-----------------------------10-----8---------------|
|--8-----10-----11-----10------------------11--------|
|----7-8----7-8----7-8----7-8----8-7---8-7-----------|

should be tapping I think, 12-7-8-14-7-8-15-7-8-14-7-8-19-8-7-17-8-7-15

0 reply
FelipeSevenfold 10 Dec 27, 2006 01:36 PM

Great tab man !
Sounds awesome ! =]

0 reply
FelipeSevenfold 10 Dec 27, 2006 01:38 PM

12p7h8-14p7h8-15p7h8-14p7h8-19p8h7-17p87h15

One more question....the tapping should be played like this ^right ?

guest
You may want to rate the tab now too:
select rating
Wanna post a correction for this tab? Suggest correction