Oops, an error
Loading. Please wait.

Empty Hearts tab

version 2
version 2

Whole song

Interactive

1,173 views 1 this week
2 commentsread comments
1 2 3 4 5
x 4
add to favorites
×
Save as Personal and add changes to this tab that will be seen only by you. Learn more ›
×
You can save this tab as Personal to edit and correct it or add notes. All changes will be seen only by you. Learn more »
launch autoscroll
font size
0
reset
how to read this tab
guitar tuner
edit
Autoscroll
slow
fast
+/-
esc
set tempo
stop
Artist: As I Lay Dying
Song: Empty Hearts
Album: Shadows are...
Tunning: dropped c (C,G,C,F,A,D)

ok this is wut i think empty hearts is
< >// harmonic
*  // mute string

GTR 1 & 2
|-----------------------------------------------------|
|-----------------------------------------------------|
|-----------------------------------------------------|
|-----------------------------------------------------|
|-5h7-4h6p4---5h7-4h6p4-0-0-5h7-4h6p4---5h7-4h6p4-0-0-|
|-----------0-----------0-0-----------0-----------0-0-|
            .           . .           .           .

GTR 1 & 2
|----------------------------------------------------|
|----------------------------------------------------|
|----------------------------------------------------|
|----------------------------------------------------|
|-5h7-4h6p4---5h7-4h6p4-0-0-5h7-4h6p4---5h7-4h6p4-0*-|
|-----------0-----------0-0-----------0-----------0*-|
            .           . .           .           .
GTR 1 & 2
|-----------------------------------------------------|
|-----------------------------------------------------|
|-----------------------------------------------------|
|-----------------------------------------------------|
|-5h7-4h6p4---5h7-4h6p4-0-0-5h7-4h6p4---5h7-4h6p4-0-0-|
|-----------0-----------0-0-----------0-----------0-0-|
            .           . .           .           .

GTR 1 & 2
|----------------------------------------------------|
|----------------------------------------------------|
|----------------------------------------------------|
|----------------------------------------------------|
|-5h7-4h6p4---5h7-4h6p4-0-0-5h7-4h6p4---5h7-4h6p4-0*-|
|-----------0-----------0-0-----------0-----------0*-|
            .           . .           .           .

GTR 1 & 2 (X4)
|-----------------|
|-----------------|
|-----------------|
|-----------------|
|-0000-0000--0--0-|
|-0000-0000--0--0-|
  .... ....  .  .

GTR 1 & 2
|----------------------------------------|
|------<13>------------------------------|
|----------------------------------------|
|----------------------------------------|
|-0000------0000--0--0--0000-0000--0--0--|
|-0000------0000--0--0--0000-0000--0--0--|
  ....      ....  .  .  .... ....  .  .

GTR 1 & 2
|-----------------------------------------|
|-----------------------------------------|
|-----------------------------------------|
|-0~---------------0~---------------------|
|-0~---------------0~---------------------|
|-0~---------------0~---------------------|

GTR 1 & 2
|-------------------------------------------------------|
|-------------------------------------------------------|
|-------------------------------------------------------|
|-------------------------------------------------------|
|-5h7-4h6---5h7-4h6p4--------5h7-4h6---5h7-4h6p4--------|
|---------0-----------000000---------0-----------000000-|
                      ......                     ......

GTR 1 & 2
|-------------------------------------------------------|
|-------------------------------------------------------|
|-------------------------------------------------------|
|-------------------------------------------------------|
|-5h7-4h6---5h7-4h6p4--------5h7-4h6---5h7-4h6p4--------|
|---------0-----------000000---------0-----------000000-|
                      ......                     ......

GTR 1 & 2
|--------------------------------------------------------------------------|
|--------------------------------------------------------------------------|
|--------------------------------------------------------------------------|
|--------------------------------------------------------------8-----------|
|-5~-----------5------------5-5--------5------------6-5------------8---6-5-|
|-------000000---00-6-0-3-0-----000000---00-6-0-3-0-----000000---0---0-----|
        ......   ..   .   .     ......   ..   .   .     ......   .   .

GTR 1 & 2
|--------------------------------------------------------------------------|
|--------------------------------------------------------------------------|
|--------------------------------------------------------------------------|
|--------------------------------------------------------------8-----------|
|-5~-----------5------------5-5--------5------------6-5------------8---6-5-|
|-------000000---00-6-0-3-0-----000000---00-6-0-3-0-----000000---0---0-----|
        ......   ..   .   .     ......   ..   .   .     ......   .   .

GTR 1 & 2
|---------------|
|---------------|
|---------------|
|---------------|
|-5----------00-|
|---00-6-0-3-00-|
    ..   .   ..

GTR 1 & 2
|-----------------------------------------------------------|
|-----------------------------------------------------------|
|-----------------------------------------------------------|
|-----------------------------------------------------------|
|--------7p5---6p4----5-6---7p5--------6-4-7-5---7p5--------|
|-000000-----0------0-----0-----000000---------6-----000000-|
  ......     .      .     .     ......         .     ......

******************************************************************************* still 
on solo commin soon ** still workin on solo commin soon    **
*****************************************************************************
                              *sorry**sorry*

GTR 1 & 2 (till the end)
|---------------------------------------------------------------------------|
|---------------------------------------------------------------------------|
|---------------------------------------------------------------------------|
|---------------------------------------------------------------------------|
|-7p5---5---9---8---5---6\\---7p5--5-6-7p5---5---9---8---5---6\\---7p5--5-6-|
|-----0---0---0---0---0--------------------0---0---0---0---0----------------|

            
            
Suggest correction
Creating personal tab
Creating personal tab
You can edit any tab online and save it as your Personal.

You can edit, replace or remove any tab part or add personal notes – all changes will be seen only by you.

Personal tabs can be accessed anytime from any device, even offline.
Learn more »
comments
print report bad tab
2 comments total.
-1 reply
stumaster18 514 Mar 19, 2008 08:16 PM

Dude...PERFECT!!!!

better than the others!

don't worry about the solo..I got it from the solo tab

0 reply
slinkar3 10 Aug 19, 2008 04:25 PM

not perfect, close but it just sounds a lil off to me 4*

guest
You may want to rate the tab now too:
select rating
Wanna post a correction for this tab? Suggest correction