Oops, an error
Loading. Please wait.

Empty Hearts tab

version 3
version 3

Whole song

Interactive

5,014 views 3 this week
2 commentsread comments
1 2 3 4 5
x 8
add to favorites
×
Save as Personal and add changes to this tab that will be seen only by you. Learn more ›
×
You can save this tab as Personal to edit and correct it or add notes. All changes will be seen only by you. Learn more »
launch autoscroll
font size
0
reset
how to read this tab
guitar tuner
edit
Autoscroll
slow
fast
+/-
esc
set tempo
stop
Author
As I Lay Dying
Empty Hearts (Track 5)
Shadows Are Security

Guitar 1 - Nick Hipa
Guitar 2 - Phil Sgrosso

Tuning: Drop C - From Low to High (CGCFAD)

Intro (00.00 - 00.15)
Guitars 1 & 2
X3                                       ...After, play this once.
|--------------------------------------| |---------------------------------|
|--------------------------------------| |---------------------------------|
|--------------------------------------| |---------------------------------|
|--------------------------------------| |---------------------------------|
|-6h9p6---5h8p5----6h9p6----5h8p5------| |-6h9p6---5h8p5---6h9p6--5h8p5----|
|-------0-------0--------0--------0-0--| |-------0-------0-------0------0--|
        .       .        .        . .            .       .       .      .


Riff 1 (00.15 - 00.31)
Guitars 1 & 2
|----------------------------------------------------------------|
|----------------------------------------------------------------|
|----------------------------------------------------------------|
|-0000--0000---00--0000--0000---00--0000--0000---00--0000--0000--|
|-0000--0000---00--0000--0000---00--0000--0000---00--0000--0000--|
|-0000--0000---00--0000--0000---00--0000--0000---00--0000--0000--|
  ....  ....   ..  ....  ....   ..  ....  ....   ..  ....  ....

         (N.H)                        (N.H)
|----------------------------------------------------------------|
|----------------------------------------------------------------|
|----------------------------------------------------------------|
|-00-000------0000-00-0000-0000-00-000------0000-00-0000-0000-00-|
|-00-000------0000-00-0000-0000-00-000------0000-00-0000-0000-00-|
|-00-000-(3b)-0000-00-0000-0000-00-000-(3b)-0000-00-0000-0000-00-|
  .. ...      .... .. .... .... .. ...      .... .. .... .... ..


Pre-Verse Riff (00.31 - 00.40)
Guitar 1
|-------------------------------------||--------------------------------|
|-------------------------------------||--------------------------------|
|-------------------------------------||--------------------------------|
|-------------------------------------||--------------------------------|
|6h9----5h8----6h9----5h8p5-----------||6h9---5h8---6h9---5h8p5---------|
|----0-------0------0--------00000000-||----0-----0-----0-------00000000|
     .       .      .        ........       .     .     .       ........

Guitar 2
|-------------------------------------||--------------------------------|
|-------------------------------------||--------------------------------|
|-------------------------------------||--------------------------------|
|-0~~~~~~~~~~~~~~~~~~~~~~~~~----------||--------------------------------|
|-0~~~~~~~~~~~~~~~~~~~~~~~~~----------||--------------------------------|
|-0~~~~~~~~~~~~~~~~~~~~~~~~~-00000000-||------------------------00000000|
                             ........                           ........

Continued...
Guitar 1
|-------------------------------------||--------------------------------|
|-------------------------------------||--------------------------------|
|-------------------------------------||--------------------------------|
|-------------------------------------||--------------------------------|
|6h9----5h8----6h9----5h8p5-----------||6h9---5h8---6h9---5h8p5---------|
|----0-------0------0--------00000000-||----0-----0-----0-------X///////|
     .       .      .        ........       .     .     .       

Guitar 2
|-------------------------------------||--------------------------------|
|-------------------------------------||--------------------------------|
|-------------------------------------||--------------------------------|
|-0~~~~~~~~~~~~~~~~~~~~~~~~~----------||--------------------------------|
|-0~~~~~~~~~~~~~~~~~~~~~~~~~----------||--------------------------------|
|-0~~~~~~~~~~~~~~~~~~~~~~~~~-00000000-||------------------------00000000|
                             ........                           ........


Verse (00.40 - 1.02)
Guitars 1 & 2
|--------------------------------------------------------------|
|--------------------------------------------------------------|
|--------------------------------------------------------------|
|--------------------------------------------------------------|
|-5---------------5----------5------------------5----------65--|
|---0-0-0-000-000---00-6-0-3---0--0-0-0-000-000---00-6-0-3-----| <
    . . . ... ...   ..   .        . . . ... ...   ..   .          |
                                                                 Repeat 2X
Continued...                                                         |
Guitars 1 & 2                                                     |
|--------------------------------------------------------------| <
|--------------------------------------------------------------|
|--------------------------------------------------------------|
|---------------8----7-----------------------------------------|
|------------------------8---65----------------6-----5---------|
|-0-0-0-000-000---00---0---0----0-0-0-000-000----00----8-7-5---|
  . . . ... ...   ..   .   .    . . . ... ...    .. 


Riff 2 (1.02 - 1.06)
Guitar 1
|--------------------------------------------------------------|
|--------------------------------------------------------------|
|--------------------------------------------------------------|
|--------------------------------------------------------------|
|-9p6-------------9p6---8p5---56--9p6---------------59-8-5-----|
|-----0-0-000-000-----0-----0----------0-0-000-000---------6---|
      . . ... ...     .     .          . . ... ...         

Guitar 2
|--------------------------------------------------------------|
|--------------------------------------------------------------|
|--------------------------------------------------------------|
|-00------------------------------00---------------------------|
|-00------------------------------00----------------59-8-5-----|
|-00------------------------------00-----------------------6---|
  ..                              ..

Riff 2 Continued (1.06 - 1.28)
Guitars 1 & 2
|--------------------------------------------------------------|
|--------------------------------------------------------------|
|--------------------------------------------------------------|
|--------------------------------------------------------------|
|-9p6-------------9p6---8p5---56--9p6---------------59-8-5-----|
|-----0-0-000-000-----0-----0----------0-0-000-000---------6---|
      . . ... ...     .     .          . . ... ...


Repeat Verse (1.28 - 1.49)


Solo (1.49 - 2.10 )
*Note - Couldn't have done tabbed this solo without "imxron"'s Tab.
             Nice Job Figuring this thing out.
Guitar 1
|---------------------------------------------------------------------|
|---------------------------------------------------------------------|
|-12-11-12---14-12-11---12-11-12--15-13-12--12-11-12--14-13-12--------|
|---------------------------------------------------------------12^---|
|---------------------------------------------------------------------|
|---------------------------------------------------------------------|


|--11-8-11---14-11-8---11-8-11---14-11-8---11-10-8---10-8-------------|
|----------------------------------------------------------11-10^-----|
|---------------------------------------------------------------------|
|---------------------------------------------------------------------|
|---------------------------------------------------------------------|
|---------------------------------------------------------------------|

|-----------------------------------10------8--------------|
|--8-------10-------11------10----------------------11-----|
|-----7-8------7-8------7-8-----7-8----8-7-----8-7---------|
|----------------------------------------------------------|
|----------------------------------------------------------|
|----------------------------------------------------------|

                                                  (A.H)
|----------------------------------------------------------|
|----------------------------------------------------------|
|----------------------------------------------------------|
|--8-7-5-------------------------------------------(8b)----| 
|---------8-7-5---5-7-10---10-7-5---8-7-5--8-7-5-----------|
|----------------------------------------------------------|

|------------------------------------|
|-8^--7-8-10^--8-10-11^--10-11-13^---|
|------------------------------------|
|------------------------------------|
|------------------------------------|
|------------------------------------|

|--------------------------------------------------------15-14~~|
|-13p11p10--------------------------------------16-15-13--------|
|--------------------------------------15-14-12-----------------|
|-----------13-12-10----------12-14-15--------------------------|
|--------------------10-12-13-----------------------------------|
|---------------------------------------------------------------|

|-20-20-20-18-18-18-17-17-17-18-18-18-17-17-17-15-15-15-14-14-14----------|
|----------------------------------------------------------------16-16-16-|
|-------------------------------------------------------------------------|
|-------------------------------------------------------------------------|
|-------------------------------------------------------------------------|
|-------------------------------------------------------------------------|
  TP TP TP TP TP TP TP TP TP TP TP TP TP TP TP TP TP TP TP TP TP TP TP TP 

|---14p11p10----11p10p8----10p8p6----8p6p5------2~/10~~~~~~~~~~~~~~~~~~~--|
|-------------------------------------------------------------------------|
|-------------------------------------------------------------------------|
|-------------------------------------------------------------------------|
|-------------------------------------------------------------------------|
|-------------------------------------------------------------------------|

Rhythm (1.49 - 2.10)
(During Solo)
|--------------------------------------------------------------|
|--------------------------------------------------------------|
|--------------------------------------------------------------|
|--------------------------------------------------------------|
|-5---------------5----------5------------------5----------65--|
|---0-0-0-000-000---00-6-0-3---0--0-0-0-000-000---00-6-0-3-----| 
    . . . ... ...   ..   .        . . . ... ...   ..   .

|--------------------------------------------------------------| 
|--------------------------------------------------------------|
|--------------------------------------------------------------|
|---------------8----7-----------------------------------------|
|------------------------8---65----------------6-----5---------|
|-0-0-0-000-000---00---0---0----0-0-0-000-000----00----8-7-5---|
  . . . ... ...   ..   .   .    . . . ... ...    .. 

|------------------------------------------------------------------|
|------------------------------------------------------------------|
|------------------------------------------------------------------|
|------------------------------------------------------------------|
|-/9---------------9-----------9------------------9-----------10-7-|
|----0-0-0-000-000---00-10-0-7---0--0-0-0-000-000---00-10-0-7------| 
     . . . ... ...   ..    .        . . . ... ...   ..    .

|------------------------------------------------------------------| 
|------------------------------------------------------------------|
|------------------------------------------------------------------|
|---------------12----11-------------------------------------------|
|--------------------------12---10-9---------------10-----9--------|
|-0-0-0-000-000----00----0----0------0-0-0-000-000----00----10-9-7-|
  . . . ... ...    ..    .    .      . . . ... ...    .. 


Riff 3 (2.10 - 2.22)
Guitar 1
|--------------------------------------------------------------------------|
|--------------------------------------------------------------------------|
|--------------------------------------------------------------------------|
|--------------------------------------------------------------------------|
|-9p6----5----9----8----5----9p6-56--9p6-----5-----9------8-----5---6-9-5~~|
|-----0----0----0----0----00--------------0-----0-----0-----0----00--------|
      .    .    .    .    ..              .     .     .     .    ..

Guitar 2
|------------------------------------------------------------------------|
|------------------------------------------------------------------------|
|------------------------------------------------------------------------|
|------------------------------------------------------------------------|
|------------------------------------------------------------------------|
|-00000-----------------------------00000--------------------------------|
  .....                             .....

Feedback
|------------------------------------------------------------------------|
|------------------------------------------------------------------------|
|------------------------------------------------------------------------|
|--~~~~~~~~~~~~~~~~~~~~~~~~~~~~~~~~~~~~~~~~~~~~~~~~~~~~~~~~~~~~~~~~~~~---|
|--~~~~~~~~~~~~~~~~~~~~~~~~~~~~~~~~~~~~~~~~~~~~~~~~~~~~~~~~~~~~~~~~~~~---|
|--~~~~~~~~~~~~~~~~~~~~~~~~~~~~~~~~~~~~~~~~~~~~~~~~~~~~~~~~~~~~~~~~~~~---|


Continued...
Guitar 1                                                              (A.H)
|--------------------------------------------------------------------------|
|--------------------------------------------------------------------------|
|--------------------------------------------------------------------------|
|--------------------------------------------------------------------------|
|-9p6----5----9----8----5----9p6-56--9p6-----5-----9-----8-----5---6-9-(8b)|
|-----0----0----0----0----00--------------0-----0-----0----0----00---------|
      .    .    .    .    ..              .     .     .    .    ..

Guitar 2
|------------------------------------------------------------------------|
|------------------------------------------------------------------------|
|------------------------------------------------------------------------|
|------------------------------------------------------------------------|
|------------------------------------------------------------------------|
|-00000-----------------------------00000--------------------------------|
  .....                             .....

Feedback
|------------------------------------------------------------------------|
|------------------------------------------------------------------------|
|------------------------------------------------------------------------|
|--~~~~~~~~~~~~~~~~~~~~~~~~~~~~~~~~~~~~~~~~~~~~~~~~~~~~~~~~~~~~~~~~~~~---|
|--~~~~~~~~~~~~~~~~~~~~~~~~~~~~~~~~~~~~~~~~~~~~~~~~~~~~~~~~~~~~~~~~~~~---|
|--~~~~~~~~~~~~~~~~~~~~~~~~~~~~~~~~~~~~~~~~~~~~~~~~~~~~~~~~~~~~~~~~~~~---|


Outro (2.22 - 2.48)
Guitar 1 & 2
X2
|--------------------------------------------------------------------------|
|--------------------------------------------------------------------------|
|--------------------------------------------------------------------------|
|--------------------------------------------------------------------------|
|-9p6----5----9----8----5----9p6-56--9p6-----5-----9------8-----5---6-9-5~~|
|-----0----0----0----0----00--------------0-----0-----0-----0----00--------|
      .    .    .    .    ..              .     .     .     .    ..
 
                                                                    (A.H)
|--------------------------------------------------------------------------|
|--------------------------------------------------------------------------|
|--------------------------------------------------------------------------|
|--------------------------------------------------------------------------|
|-9p6----5----9----8----5----9p6-56--9p6-----5-----9-----8-----5---6-9-(8b)|
|-----0----0----0----0----00--------------0-----0-----0----0----00---------|
      .    .    .    .    ..              .     .     .    .    ..

End With
Guitars 1 & 2
|------------|
|------------|
|------------|
|------------|
|------------|
|---00000----|


_____________________________
                             |
(N.H) - Natural Harmonic     |
(A.H) - Artificial Harmonic  |
p - Pull-Off                 |
h - Hammer-On                |
X/////- Pick Scrape          |
b - Bend                     |
^ - Vibrato                  |
. - Palm Mute                |
~ - Let Note Ring Out        |
TP - Tremelo Pick            |
______________________________


Well, thats pretty much it.
Theres the lead and rhythm for ya in synchronized time and stuff so go nuts.


Tabbed by AsILayDying#1


            
            
Suggest correction
Creating personal tab
Creating personal tab
You can edit any tab online and save it as your Personal.

You can edit, replace or remove any tab part or add personal notes – all changes will be seen only by you.

Personal tabs can be accessed anytime from any device, even offline.
Learn more »
comments
print report bad tab
2 comments total.
+1 reply
'StoleN' 154 Mar 29, 2007 01:52 PM

A few minor errors but nice tab good job best one out there atm.

0 reply
thuglifeonmines 10 Apr 15, 2011 10:30 AM

Is there even a palm muted open in the intro? between the
6h9p6 and 5h8p5

guest
You may want to rate the tab now too:
select rating
Wanna post a correction for this tab? Suggest correction