Oops, an error
Loading. Please wait.

Forever bass

version 1
version 1

Whole song

9,099 views 1 this week
7 commentsread comments
1 2 3 4 5
x 7
add to favorites
×
Save as Personal and add changes to this tab that will be seen only by you. Learn more ›
×
You can save this tab as Personal to edit and correct it or add notes. All changes will be seen only by you. Learn more »
launch autoscroll
font size
0
reset
guitar tuner
edit
Autoscroll
slow
fast
+/-
esc
set tempo
stop
As I Lay Dying - Forever
Tuning: CGCFAD
Submitted By: XanimeOz

This is my first tab, so if its wrong or bad plz tell me, and my ENGLISH is bad! intro
listen to the double bass the drummer is playing, you play when he kicks the bass drum,
u stop when the guitar fills.

0:00 - 0:12
F|----------------------------------------------------------------|
C|----------------------------------------------------------------| (x2)
G|----------------------------------------------------------------|
C|0-0~-----------0-0~-----------3-3~-----------3-3-3-3~-----------|

from here you play the same notes, but just keep picking.
0:12 - 0:23
F|-----------------------------------------------------------------|
C|-----------------------------------------------------------------|(x2)
G|-----------------------------------------------------------------|
C|0-0-0-0-0-0-0-0-0-0-0-0-0-0-0-3-3-3-3-3-3-3-3-3-3-3-3-3-3-3-3-3-3|

0:23 - 0:45
F|----------------------------------------------------------------|
C|----------------------------------------------------------------| (x2)
G|---------------5/8-8-8--8-/7-7/10----------------5/8-8-8--8-/7-3|
C|00-0-0000-0-00--------------------00-0-0000-0-00----------------|

0:45 - 0:51
with the slide at the end u can really slide from anywhere down
F|----------------------------------------------------------------|
C|----------------------------------------------------------------|
G|----------------------------------------------------------------|
C|0~-------------0~-------------0~-------------12\0---------------|

0:51 - 1:12
this looked a be mad to read after i tab it, but if u listen to the
track and follow it your eye your see its right...
F|-----------------------------------------------------------------|
C|-----------------------------------------------------------------|
G|8-/7-3-8-/7-3-3-3-3-8-/7-3-8-/7-3-3-3-3-----7-8--10-12-13-12-10-9|
C|-----------------------------------------------------------------|
V this at the end V
F|--------------------|
C|--------------------|
G|8-/7-3-8-/7-3-3-3-3-| (2x)
C|--------------------|

1:12 -1:14
this bit is short but you can hear it, its the chug at the end of
the verse going in to 2nd corus..
F|----------------------------------------------------------------|
C|----------------------------------------------------------------|
G|1111111111111111------------------------------------------------|
C|----------------------------------------------------------------|

1:14 -1:26
F|----------------------------------------------------------------|
C|----------------------------------------------------------------| (x2)
G|----------------------------------------------------------------|
C|0-0~-----------0-0~-----------3-3~-----------3-3-3-3~-----------|

1:26 - 1:37
F|-----------------------------------------------------------------|
C|-----------------------------------------------------------------|(x2)
G|-----------------------------------------------------------------|
C|0-0-0-0-0-0-0-0-0-0-0-0-0-0-0-3-3-3-3-3-3-3-3-3-3-3-3-3-3-3-3-3-3|

1:37 - 1:59
F|----------------------------------------------------------------|
C|----------------------------------------------------------------| (x2)
G|---------------5/8-8-8--8-/7-7/10----------------5/8-8-8--8-/7-3|
C|00-0-0000-0-00--------------------00-0-0000-0-00----------------|

2:00 - 2:57
this bit is hard to expain but you heard how it work, it go's up to
the g# or 1 fret on g string. when the guitar do's a fill. i dont no
how mean bars it is, but you can it well, when the changes are. this
part last in till the breakdown (where it goes quiet and its just the guitar.
F|---only----|-----------------------------------------------------|
C|--play-----|-----------------------------------------------------| x ?
G|----once---|-------------------1-1-1-1-1-1-1-1-------------------|
C|0-0-0-0-0-0|0-0-0-0-0-0-0-0-0-------------------0-0-0-0-0-0-0-0-0|


2:58 - 3:54
with this part you come in when the guitar start to parm mute the strings.
F|----------------------------------------------------------------|
C|----------------------------------------------------------------|
G|-8-8-8-7-7-7-5-5-5-8-8-8--8-8-8-7-7-7-10-10-10-8-8-8------------| x (6)
C|----------------------------------------------------------------|

3:54 - 4:27

F|----------------------------------------------------------------|
C|----------------------------------------------------------------| (x4)
G|-8--8-8-8-8--7-7777-5-5555-5-5555-3-3333-3-3333-8--8-8-8-8------|
C|----------------------------------------------------------------|

4:27 to end
to end it just hit top string                          MY WAy TO END IT
F|----------------------------------------------------|-7~---------|
C|----------------------------------------------------|-0~---------|
G|----------------------------------------------------|-5~---------|
C|-0~-------------------------------------------------|-0~---------|

            
            
Suggest correction
Creating personal tab
Creating personal tab
You can edit any tab online and save it as your Personal.

You can edit, replace or remove any tab part or add personal notes – all changes will be seen only by you.

Personal tabs can be accessed anytime from any device, even offline.
Learn more »
comments
print report bad tab
7 comments total. Showing first comments.
0 reply
mattw36 10 Dec 02, 2006 06:06 PM

Best tab ever. Also a good song. but tabbed out very nicely. Congratulations.

0 reply
Grebble 92 Apr 01, 2007 11:38 PM

Well done, very well tabbed.
I think I'll play this song for my solo performance in musica at school.

0 reply
skateswitch 71 Jun 05, 2007 05:26 PM

very accurate, good job

guest
You may want to rate the tab now too:
select rating
Wanna post a correction for this tab? Suggest correction