Oops, an error
Loading. Please wait.

Losing Sight bass

version 1
version 1

Whole song

930 views 1 this week
1 commentread comment
1 2 3 4 5
1 last vote to show rating
add to favorites
×
Save as Personal and add changes to this tab that will be seen only by you. Learn more ›
×
You can save this tab as Personal to edit and correct it or add notes. All changes will be seen only by you. Learn more »
launch autoscroll
font size
0
reset
guitar tuner
edit
Autoscroll
slow
fast
+/-
esc
set tempo
stop
Author
Artist-As I Lay Dying
Song-Losing Sight
Tuning-CGCf

Note: Notes in brackets are optional!

Intro / Main Riff x2
|---------------------------2-------------------------------0-|
|------------0-3------0---0----------------0-3----------------|
|-----------------------0-----4---------------------3-----3---|
|-000-000-000---000-0-----------000-000-000---000-3---000-----| 
                                                                          
|-----------------------------2-------------------------------|
|------------0-3------0---0----------------0-3--------------2-|
|-----------------------0---4-----------------------3-----0---|
|-000-000-000---000-0-----------000-000-000---000-3---000-----|

Fill A x2
|-------------------------------------|
|---(3h5-7-7-5-7-5-3-2-3-3-2--)-------|
|---(------------------------3)---1---|
|-0-----------------------------0~--5~|

Verse Pt.1 x2
|---------------------------------------|
|-----------(3h5-7-7-5)-7-5-3-2-3-3-2---|
|-------------------------------------3-|
|0-0-000-000----------------------------|

|---------------------------------------|
|---------------------------------------|
|-------------------------1-1-11--------|
|0-0-000-000-0-0-000-000---------5-5-55-|

Verse Pt.2 x2
|-----------------------------------------------------|
|----------------3---2---0--------------------7p0-8p0-|
|----------------------3--------------5p0-3h5---------|
|-0-0-0-0-0-0-0-0-0-0-0----0-0-0-0-0-0----------------|

|------------------------------------------|
|----------------3---2---0-----------------|
|----------------------3---------------1-3-|
|-0-0-0-0-0-0-0-0-0-0-0----0-0-0-0-0-0-----|

Main Riff x2
|---------------------------2-------------------------------0-|
|------------0-3------0---0----------------0-3----------------|
|-----------------------0-----4---------------------3-----3---|
|-000-000-000---000-0-----------000-000-000---000-3---000-----| 
                                                                          
|-----------------------------2-------------------------------|
|------------0-3------0---0----------------0-3--------------2-|
|-----------------------0---4-----------------------3-----0---|
|-000-000-000---000-0-----------000-000-000---000-3---000-----|

Fill x4

|------------------------------------------------------------------|
|---------------------------7-----------------------------7p0-8p0--|
|------------5-8------5-0-5---4------------5-8----5p0-3h5----------|
|-000-000-000---000-0-----------000-000-000---000------------------| 

|---------------------------------------------------------|
|---------------------------7-------------------------3-5-|
|------------5-8------5-0-5---4------------5-8----0-5-----|
|-000-000-000---000-0-----------000-000-000---000---------| 

Verse Pt.3 
|-----------------------------------------------------|
|----------------3---2---0--------------------7p0-8p0-|
|----------------------3--------------5p0-3h5---------|
|-0-0-0-0-0-0-0-0-0-0-0----0-0-0-0-0-0----------------|

|------------------------------------------|
|----------------3---2---0-----------------|
|----------------------3---------------1-3-|
|-0-0-0-0-0-0-0-0-0-0-0----0-0-0-0-0-0-----|

|----------------------------------------------------|
|--------------------------------------------7p0-8p0-|
|----------------8---7-3-5------------5p0-3h5--------|
|-0-0-0-0-0-0-0-0-0-0-0----0-0-0-0-0-0---------------|

|-----------------------------------------|
|-----------------------------------------|
|----------------8---7-3-5----------------|
|-0-0-0-0-0-0-0-0-0-0-0----0-0-0-0-0-0--0-|

Outro Riff x3
|---------------------------------------|
|-----------(3h5-7-7-5)-7-5-3-2-3-3-2---|
|-------------------------------------3-|
|0-0-000-000----------------------------|

|---------------------------------------|
|---------------------------------------|
|-------------------------1-1-11--------|
|0-0-000-000-0-0-000-000---------5-5-55-|
Ending

|-------------|
|-------------|
|-------------|
|-0-0-000-000-|

Any comments to fix this god awful shitty tab, send 'em to me addy at the top of the page! 

!PEACE!

            
            
Suggest correction
Creating personal tab
Creating personal tab
You can edit any tab online and save it as your Personal.

You can edit, replace or remove any tab part or add personal notes – all changes will be seen only by you.

Personal tabs can be accessed anytime from any device, even offline.
Learn more »
Give kudos to tab author, rate the tab!
1 2 3 4 5
comments
print report bad tab
1 comment total.
+1 reply
louiscyr 406 Jul 05, 2007 08:53 AM

nice

guest
You may want to rate the tab now too:
select rating
Wanna post a correction for this tab? Suggest correction