Oops, an error
Loading. Please wait.

Losing Sight tab

version 4
version 4
6,712 views 3 this week
3 commentsread comments
1 2 3 4 5
x 6
add to favorites
×
Save as Personal and add changes to this tab that will be seen only by you. Learn more ›
×
You can save this tab as Personal to edit and correct it or add notes. All changes will be seen only by you. Learn more »
launch autoscroll
font size
0
reset
how to read this tab
guitar tuner
edit
Autoscroll
slow
fast
+/-
esc
set tempo
stop
Author
Artist:As I Lay Dying
Song: Losing Sight
Album:shadows are security


intro/main riff
both Gtrs
|-------------------------------------------------------------|
|-------------------------------------------------------------|
|-------------------------------------------------------------|
|---------------------------7-------------------------------5-|
|------------5-8------5-0-5---4------------5-8------3-----3---|
|-000-000-000---000-0-----------000-000-000---000-3---000-----| \
                                                                                    (x2)
|-------------------------------------------------------------| /
|-------------------------------------------------------------|
|-------------------------------------------------------------|
|---------------------------7---------------------------------|
|------------5-8------5-0-5---4------------5-8------3-------7-|
|-000-000-000---000-0-----------000-000-000---000-3---000-7---|


verse riff
Gtr I
|------------------------------------------|
|------------------------------------------|
|------------------------------------------|
|------------------------------------------|
|-0--------8h10-12-12-10-12-10-8-7-8-8-7-3-|
|-0-0-0-000----0--0--0--0--0--0-0-0-0-0-0--|
|
|Gtr II
|------------------------------------------|
|------------------------------------------|
|------------------------------------------|
|-0-------------------(0)------------------|
|-0-------------------(0)------------------|
|-0-------------------(0)------------------|


Gtr I
|---------------------------------------------|
|---------------------------------------------|
|---------------------------------------------|
|-------------------------10-8--------8-7-5---|
|-0--------8h10-12-12-10-------12-10--------8-|
|-0-0-0-000----0--0--0---8--8-8--8---5-5-5-5--|
|
|Gtr II
|--------------------------------------------|
|--------------------------------------------|
|--------------------------------------------|
|-0---------------------8------------5-------|
|-0---------------------8------------5-------|
|-0---------------------8------------5-------|


Gtr I
|------------------------------------------|
|------------------------------------------|
|------------------------------------------|
|------------------------------------------|
|-0--------8h10-12-12-10-12-10-8-7-8-8-7-3-|
|-0-0-0-000----0--0--0--0--0--0-0-0-0-0-0--|
|
|Gtr II
|------------------------------------------|
|------------------------------------------|
|------------------------------------------|
|-0-------------------(0)------------------|
|-0-------------------(0)------------------|
|-0-------------------(0)------------------|


Gtr I
|---------------------------------------------|
|---------------------------------------------|
|---------------------------------------------|
|-------------------------10-8--------8-7-5---|
|-0--------8h10-12-12-10-------12-10--------8-|
|-0-0-0-000----0--0--0---8--8-8--8---5-5-5-5--|
|
|Gtr II
|------------------------------------------------|
|------------------------------------------------|
|------------------------------------------------|
|-0---------------------8------------5-----------|
|-0---------------------8-8-8-8-8-8--5-5-5-5-5-5-|
|-0---------------------8-8-8-8-8-8--5-5-5-5-5-5-|

verse
Gtr I
|---------------------------------------------|
|---------------------------------------------|
|---------------------------------------------|
|---------------------------------------------|
|-0----------8h10-12-12-10-12-10-8-7-8-8-7-3--|
|-0-0-000-000----0--0--0--0--0--0-0-0-0-0-0---|
|
|Gtr II
|--------------------------------------------------|
|--------------------------------------------------|
|--------------------------------------------------|
|-0-----------------------0------------------------|
|-0-0-000-000---0-0-0-0-0-0-0-0-0-0-0-0-12-12-10-7-|
|-0-0-000-000---0-0-0-0-0-0-0-0-0-0-0-0---0--0--0--|


Gtr I
|-----------------------------------------------|
|-----------------------------------------------|
|-----------------------------------------------|
|---------------------------10-8--------8-7-5---|
|-0----------8h10-12-12-10-------12-10--------8-|
|-0-0-000-000----0--0--0---8--8-8--8---5-5-5-5--|
|
|Gtr II
|---------------------------------------------------------------|
|---------------------------------------------------------------|
|---------------------------------------------------------------|
|-0-----------------------0-------------8-----------5-----------|
|-0-0-000-000---0-0-0-0-0-0-0-0-0-0-0-0-8-8-8-8-8-8-5-5-5-5-5-5-|
|-0-0-000-000---0-0-0-0-0-0-0-0-0-0-0-0-8-8-8-8-8-8-5-5-5-5-5-5-|


Gtr I
|---------------------------------------------|
|---------------------------------------------|
|---------------------------------------------|
|---------------------------------------------|
|-0----------8h10-12-12-10-12-10-8-7-8-8-7-3--|
|-0-0-000-000----0--0--0--0--0--0-0-0-0-0-0---|
|
|Gtr II
|--------------------------------------------------|
|--------------------------------------------------|
|--------------------------------------------------|
|-0-----------------------0------------------------|
|-0-0-000-000---0-0-0-0-0-0-0-0-0-0-0-0-12-12-10-7-|
|-0-0-000-000---0-0-0-0-0-0-0-0-0-0-0-0---0--0--0--|


Gtr I
|-----------------------------------------------|
|-----------------------------------------------|
|-----------------------------------------------|
|---------------------------10-8--------8-7-5---|
|-0----------8h10-12-12-10-------12-10--------8-|
|-0-0-000-000----0--0--0---8--8-8--8---5-5-5-5--|
|
|Gtr II
|---------------------------------------------------------------|
|---------------------------------------------------------------|
|---------------------------------------------------------------|
|-0-----------------------0-------------8-----------5-----------|
|-0-0-000-000---0-0-0-0-0-0-0-0-0-0-0-0-8-8-8-8-8-8-5-5-5-5-5-5-|
|-0-0-000-000---0-0-0-0-0-0-0-0-0-0-0-0-8-8-8-8-8-8-5-5-5-5-5-5-|


verse riff II
both Gtrs
|----------------------------------------------------|
|----------------------------------------------------|
|----------------------------------------------------|
|--------------------------------------------7p0-8p0-|
|-0--------------8---7-3-0------------5p0-3h5--------|
|-0-0-0-0-0-0-0-0-0-0-0--0-0-0-0-0-0-0---------------|

|----------------------------------------------------|
|----------------------------------------------------|
|----------------------------------------------------|
|--------------------------------------8---10--------|
|-0--------------8---7-3-0-------------8---10--------|
|-0-0-0-0-0-0-0-0-0-0-0--0-0-0-0-0-0-0-8---10--------|

|----------------------------------------------------|
|----------------------------------------------------|
|----------------------------------------------------|
|--------------------------------------------7p0-8p0-|
|-0--------------8---7-3-0------------5p0-3h5--------|
|-0-0-0-0-0-0-0-0-0-0-0--0-0-0-0-0-0-0---------------|

|-----------------------------------------------------|
|-----------------------------------------------------|
|-----------------------------------------------------|
|----------------7---5-2------------------------------|
|-0--------------8---7-3-0--------------------0-5-7-8-|
|-0-0-0-0-0-0-0-0-0-0-0--0-0-0-0-0-0-0-0-0-0-0--------|

main riff
both Gtrs
|-------------------------------------------------------------|
|-------------------------------------------------------------|
|-------------------------------------------------------------|
|---------------------------7-------------------------------5-|
|------------5-8------5-0-5---4------------5-8------3-----3---|
|-000-000-000---000-0-----------000-000-000---000-3---000-----|

|-------------------------------------------------------------|
|-------------------------------------------------------------|
|-------------------------------------------------------------|
|---------------------------7---------------------------------|
|------------5-8------5-0-5---4------------5-8------3-------7-|
|-000-000-000---000-0-----------000-000-000---000-3---000-7---|

|-------------------------------------------------------------|
|-------------------------------------------------------------|
|-------------------------------------------------------------|
|---------------------------7-------------------------------5-|
|------------5-8------5-0-5---4------------5-8------3-----3---|
|-000-000-000---000-0-----------000-000-000---000-3---000-----|

|------------------------------------------------------------|
|------------------------------------------------------------|
|------------------------------------------------------------|
|--------------------------7---------------------------------|
|------------5-8-----5-0-5---4------------5-8------3------7--|
|-0-0-0-0-0-0---0-0-0----------0-0-0-0-0-0---0-0-3--0-0-7----|

|--------------------------------------------------------------|
|--------------------------------------------------------------|
|--------------------------------------------------------------|
|--------------------------7----------------7-------14-0-15-12-|
|--------5-8-----------5-0---4--------5-8-----7-8-5------------|
|-000-000---0-0-000-000--------000-000---0-0-------------------| \
                                                                (x2)
|-------------------------------------------------------------| /
|-------------------------------------------------------------|
|-------------------------------------------------------------|
|--------------------------7----------------------------------|
|--------5-8-----------5-0---4--------5-8-------------0-5-7-8-|
|-000-000---0-0-000-000--------000-000----0-0-000-000---------|

verse riff II
both Gtrs
|----------------------------------------------------|
|----------------------------------------------------|
|----------------------------------------------------|
|--------------------------------------------7p0-8p0-|
|-0--------------8---7-3-0------------5p0-3h5--------|
|-0-0-0-0-0-0-0-0-0-0-0--0-0-0-0-0-0-0---------------|

|----------------------------------------------------|
|----------------------------------------------------|
|----------------------------------------------------|
|--------------------------------------8---10--------|
|-0--------------8---7-3-0-------------8---10--------|
|-0-0-0-0-0-0-0-0-0-0-0--0-0-0-0-0-0-0-8---10--------|

|----------------------------------------------------|
|----------------------------------------------------|
|----------------------------------------------------|
|--------------------------------------------7p0-8p0-|
|-0--------------8---7-3-0------------5p0-3h5--------|
|-0-0-0-0-0-0-0-0-0-0-0--0-0-0-0-0-0-0---------------|

|-----------------------------------------------------|
|-----------------------------------------------------|
|-----------------------------------------------------|
|----------------7---5-2------------------------0-----|
|-0--------------8---7-3-0----------------------0-----|
|-0-0-0-0-0-0-0-0-0-0-0--0-0-0-0-0-0-0-0-0-0-0--0-----|

a brief pause,then

Gtr I
|---------------------------------------------|
|---------------------------------------------|
|---------------------------------------------|
|---------------------------------------------|
|-0----------8h10-12-12-10-12-10-8-7-8-8-7-3--|
|-0-0-000-000----0--0--0--0--0--0-0-0-0-0-0---|
|
|Gtr II
|--------------------------------------------------|
|--------------------------------------------------|
|--------------------------------------------------|
|-0-----------------------0------------------------|
|-0-0-000-000---0-0-0-0-0-0-0-0-0-0-0-0-12-12-10-7-|
|-0-0-000-000---0-0-0-0-0-0-0-0-0-0-0-0---0--0--0--|


Gtr I
|-----------------------------------------------|
|-----------------------------------------------|
|-----------------------------------------------|
|---------------------------10-8--------8-7-5---|
|-0----------8h10-12-12-10-------12-10--------8-|
|-0-0-000-000----0--0--0---8--8-8--8---5-5-5-5--|
|
|Gtr II
|---------------------------------------------------------------|
|---------------------------------------------------------------|
|---------------------------------------------------------------|
|-0-----------------------0-------------8-----------5-----------|
|-0-0-000-000---0-0-0-0-0-0-0-0-0-0-0-0-8-8-8-8-8-8-5-5-5-5-5-5-|
|-0-0-000-000---0-0-0-0-0-0-0-0-0-0-0-0-8-8-8-8-8-8-5-5-5-5-5-5-|


Gtr I
|---------------------------------------------|
|---------------------------------------------|
|---------------------------------------------|
|---------------------------------------------|
|-0----------8h10-12-12-10-12-10-8-7-8-8-7-3--|
|-0-0-000-000----0--0--0--0--0--0-0-0-0-0-0---|
|
|Gtr II
|--------------------------------------------------|
|--------------------------------------------------|
|--------------------------------------------------|
|-0-----------------------0------------------------|
|-0-0-000-000---0-0-0-0-0-0-0-0-0-0-0-0-12-12-10-7-|
|-0-0-000-000---0-0-0-0-0-0-0-0-0-0-0-0---0--0--0--|


Gtr I
|-----------------------------------------------|
|-----------------------------------------------|
|-----------------------------------------------|
|---------------------------10-8--------8-7-5---|
|-0----------8h10-12-12-10-------12-10--------8-|
|-0-0-000-000----0--0--0---8--8-8--8---5-5-5-5--|
|
|Gtr II
|---------------------------------------------------------------|
|---------------------------------------------------------------|
|---------------------------------------------------------------|
|-0-----------------------0-------------8-----------5-----------|
|-0-0-000-000---0-0-0-0-0-0-0-0-0-0-0-0-8-8-8-8-8-8-5-5-5-5-5-5-|
|-0-0-000-000---0-0-0-0-0-0-0-0-0-0-0-0-8-8-8-8-8-8-5-5-5-5-5-5-|

Gtr I
|---------------------------------------------|
|---------------------------------------------|
|---------------------------------------------|
|---------------------------------------------|
|-0----------8h10-12-12-10-12-10-8-7-8-8-7-3--|
|-0-0-000-000----0--0--0--0--0--0-0-0-0-0-0---|
|
|Gtr II
|--------------------------------------------------|
|--------------------------------------------------|
|--------------------------------------------------|
|-0-----------------------0------------------------|
|-0-0-000-000---0-0-0-0-0-0-0-0-0-0-0-0-12-12-10-7-|
|-0-0-000-000---0-0-0-0-0-0-0-0-0-0-0-0---0--0--0--|


Gtr I
|-----------------------------------------------|
|-----------------------------------------------|
|-----------------------------------------------|
|---------------------------10-8--------8-7-5---|
|-0----------8h10-12-12-10-------12-10--------8-|
|-0-0-000-000----0--0--0---8--8-8--8---5-5-5-5--|
|
|Gtr II
|---------------------------------------------------------------|
|---------------------------------------------------------------|
|---------------------------------------------------------------|
|-0-----------------------0-------------8-----------5-----------|
|-0-0-000-000---0-0-0-0-0-0-0-0-0-0-0-0-8-8-8-8-8-8-5-5-5-5-5-5-|
|-0-0-000-000---0-0-0-0-0-0-0-0-0-0-0-0-8-8-8-8-8-8-5-5-5-5-5-5-|


Gtr I
|---------------------------------------------|
|---------------------------------------------|
|---------------------------------------------|
|---------------------------------------------|
|-0----------8h10-12-12-10-12-10-8-7-8-8-7-3--|
|-0-0-000-000----0--0--0--0--0--0-0-0-0-0-0---|
|
|Gtr II
|--------------------------------------------------|
|--------------------------------------------------|
|--------------------------------------------------|
|-0-----------------------0------------------------|
|-0-0-000-000---0-0-0-0-0-0-0-0-0-0-0-0-12-12-10-7-|
|-0-0-000-000---0-0-0-0-0-0-0-0-0-0-0-0---0--0--0--|


Gtr I
|-----------------------------------------------|
|-----------------------------------------------|
|-----------------------------------------------|
|---------------------------10-8--------8-7-5---|
|-0----------8h10-12-12-10-------12-10--------8-|
|-0-0-000-000----0--0--0---8--8-8--8---5-5-5-5--|
|
|Gtr II
|---------------------------------------------------------------|
|---------------------------------------------------------------|
|---------------------------------------------------------------|
|-0-----------------------0-------------8-----------5-----------|
|-0-0-000-000---0-0-0-0-0-0-0-0-0-0-0-0-8-8-8-8-8-8-5-5-5-5-5-5-|
|-0-0-000-000---0-0-0-0-0-0-0-0-0-0-0-0-8-8-8-8-8-8-5-5-5-5-5-5-|

end With
|-------------|
|-------------|
|-------------|
|-------------|
|-0-0-000-000-|
|-0-0-000-000-|

            
            
Suggest correction
Creating personal tab
Creating personal tab
You can edit any tab online and save it as your Personal.

You can edit, replace or remove any tab part or add personal notes – all changes will be seen only by you.

Personal tabs can be accessed anytime from any device, even offline.
Learn more »
comments
print report bad tab
3 comments total.
0 reply
King ofKumbucha 337 Nov 29, 2006 08:17 PM

PERFECT!

except...

This:
|--------------------------------------------------------------|
|--------------------------------------------------------------|
|--------------------------------------------------------------|
|--------------------------7----------------7-------14-0-15-12-|
|--------5-8-----------5-0---4--------5-8-----7-8-5------------|
|-000-000---0-0-000-000--------000-000---0-0-------------------|

is a hell of a lot easier to play like this:

|--------------------------------------------------------------|
|--------------------------------------------------------------|
|---------------------------------------------------9----10--7-|
|--------------------------7----------------7----------0-------|
|--------5-8-----------5-0---4--------5-8-----7-8-5------------|
|-000-000---0-0-000-000--------000-000---0-0-------------------|

Same notes but a lot easier. Good Job.

*****

0 reply
King ofKumbucha 337 Nov 29, 2006 08:32 PM

And the main riff is like this:

|-------------------------------------------------------------|
|-------------------------------------------------------------|
|-------------------------------------------------------------|
|---------------------------7-------------------------------5-|
|------------5-8------8-5-0---4------------5-8------3-----3---|
|-000-000-000---000-0-----------000-000-000---000-3---000-----|

0 reply
King ofKumbucha 337 Nov 29, 2006 09:57 PM

Actually, you are wrong on a lot of parts... :/

I tabbed this on guitarpro check out my version and tell me what you think.

guest
You may want to rate the tab now too:
select rating
Wanna post a correction for this tab? Suggest correction