Oops, an error
Loading. Please wait.

No Lungs To Breathe Tab

version 1
version 1

Intro

Interactive

5,660 views 6 this week
1 commentread comment
1 2 3 4 5
1 last vote to show rating
add to favorites
launch autoscroll
font size
0
reset
how to read this tab
guitar tuner
Autoscroll
slow
fast
+/-
esc
set tempo
stop
Help us to improve Ultimate-Guitar.com Take our survey!
×
Author
Difficulty
intermediate
        Intro only (repeat numerous times)
Tuning C# G# C# F# A# D# (dropped half step down)


D#|-----------------------------------------------------------------------------------------|
A#|-----------------------------------------------------------------------------------------|
F#|-----------------------7-----------------------------------------------------------------|
C#|--7-----------------7-----7--------------8--7-----------------7--------------------------|
G#|-----8--5--0--5--8-----------8--5--0--5--------8--5--0--5--8-----10--8--7------7--8--10--|
C#|---------------------------------------------------------------------------10------------|



D#|-----------------------------------------------------------------------------------------|
A#|-----------------------------------------------------------------------------------------|
F#|-----------------------7-----------------------------------------------------------------|
C#|--7-----------------7-----7--------------8--7-----------------7------------10------------|
G#|-----8--5--0--5--8-----------8--5--0--5--------8--5--0--5--8-----10--8--7------7--8--10--|
C#|-----------------------------------------------------------------------------------------|
Suggest correction
Give kudos to tab author, rate the tab!
1 2 3 4 5
comments
print report bad tab
1 comment total.
+1 reply
tffan92 229 Mar 19, 2013 03:42 PM

The idea is there it just needed some fine tuning. The correct way to play it is this:
Tempo = 200
E = Eight note
Q = Quarter note
L = tied note
E E E E E E E E
D#||--------------------------|
A#||--------------------------|
F#||-----------------------7--|
C#||--7-----------------7-----|
G#||-----8--5--0--5--8--------|
C#||--------------------------|

E E E E E E E E
--------------------------|
--------------------------|
--------------------------|
-----7-----------------8--|
--------8--5--0--5--8-----|
--------------------------|

E E E E E E E E
---------------------------|
---------------------------|
---------------------------|
--7-----------------7------|
-----8--5--0--5--8-----10--|
---------------------------|

E E E E E E E E
-----------------------------|
-----------------------------|
-----------------------------|
-----------------------------|
--L--8--7----------7--8--10--|
-----------10--10------------|

E E E E E E E E
--------------------------|
--------------------------|
-----------------------7--|
--7-----------------7-----|
-----8--5--0--5--8--------|
--------------------------|

E E E E E E E E
--------------------------|
--------------------------|
--------------------------|
-----7-----------------8--|
--------8--5--0--5--8-----|
--------------------------|

E E E E E E E E
---------------------------|
---------------------------|
---------------------------|
--7-----------------7------|
-----8--5--0--5--8-----10--|
---------------------------|

E E E E Q E E
----------------------------|
----------------------------|
----------------------------|
---------------10-----------|
--L--8--7------------8--10--|
-----------10---------------|

guest
You may want to rate the tab now too:
select rating
Wanna post a correction for this tab? Suggest correction