Oops, an error
Loading. Please wait.
We have an official Nothing Left tab made by UG professional guitarists. Check out the tab »
×
12,089 views 3 this week
no commentswrite comment
1 2 3 4 5
x 4
add to favorites
×
Save as Personal and add changes to this tab that will be seen only by you. Learn more ›
×
You can save this tab as Personal to edit and correct it or add notes. All changes will be seen only by you. Learn more »
launch autoscroll
font size
0
reset
guitar tuner
backing track
0:00
0:00
edit
Autoscroll
slow
fast
+/-
esc
set tempo
stop
                                 Nothing Left                                   


                                As I Lay Dying
Tabbed by- Trevor Winchenbaugh
Email-ZeroSkater7286@aol.com
AIM-AoA Avenge SOB




     E  E  E  E  E  E  E  E     E  E  E  E  E  E  E  E   
F||--------------------------|--------------------------|
C||--------------------------|--------------------------|
G||--------------------------|--------------------------|
C||--0--0--------------------|-----------------------0--|


  E  E  E  E  E  E  E  E     E  E  E  E  E  E  E  E   
--------------------------|--------------------------|
--------------------------|--------------------------|
--------------------------|--------0--5--1-----------|
--0--0--------------------|--0--3-----------5--3--1--|


  E  E  E  E  E  E  E  E     E  E  E  E  E  E  E  E   
--------------------------|--------------------------|
--------------------------|--------------------------|
--------------------------|--------------------------|
--0--0-----------------0--|--0--0-----------------0--|


  E  E  E  E  E  E  E  E     E  E  E  E  E  E  E  E     W                 
--------------------------|--------------------------|-------------------|
--------------------------|--------------------------|-------------------|
--------------------------|--------0--5--1-----------|-------------------|
--0--0--------------------|--0--3-----------5--3--1--|--7----------------|


  W                   W                   E  E  E  E  E  E  E  E   
-------------------|-------------------|--------------------------|
-------------------|-------------------|--------------------------|
-------------------|-------------------|--------0--5--1-----------|
--8----------------|--7----------------|--0--3-----------5--3--1--|


  W                    W                   W                 
-------------------|--------------------|-------------------|
-------------------|--------------------|-------------------|
-------------------|--------------------|-------------------|
--7----------------|--10----------------|--8----------------|


  E  E  E  E  E  E  E  E     E  E  E  E  E  E  E  E   
--------------------------|--------------------------|
--------------------------|--------------------------|
--------0--5--1-----------|-----5-----5-----5-----5--|
--0--3-----------5--3--1--|--7-----0-----0-----0-----|


  E  E  E  E  E  E  E  E     E  E  E  E  E  E  E  E   
--------------------------|--------------------------|
--------------------------|--------------------------|
-----5-----5-----5-----5--|-----5-----5-----5-----5--|
--8-----0-----0-----0-----|--7-----0-----0-----0-----|


  E  E  E  E  E  E  E  E     E  E  E  E  E  E  E  E   
--------------------------|--------------------------|
--------------------------|--------------------------|
--------0--5--1-----------|-----5-----5-----5-----5--|
--0--3-----------5--3--1--|--7-----0-----0-----0-----|


   E  E  E  E  E  E  E  E     E  E  E  E  E  E  E  E   
---------------------------|--------------------------|
---------------------------|--------------------------|
------5-----5-----5-----5--|-----5-----5-----5-----5--|
--10-----0-----0-----0-----|--8-----0-----0-----0-----|


  E  E  E  E  E  E  E  E     E  E  E  E  E  E  E  E   
--------------------------|--------------------------|
--------------------------|--------------------------|
--------0--5--1-----------|-----5-----5-----5-----5--|
--0--3-----------5--3--1--|--7-----0-----0-----0-----|


  E  E  E  E  E  E  E  E     E  E  E  E  E  E  E  E   
--------------------------|--------------------------|
--------------------------|--------------------------|
-----5-----5-----5-----5--|-----5-----5-----5-----5--|
--8-----0-----0-----0-----|--7-----0-----0-----0-----|


  E  E  E  E  E  E  E  E     E  E  E  E  E  E  E  E   
--------------------------|--------------------------|
--------------------------|--------------------------|
--------0--5--1-----------|-----5-----5-----5-----5--|
--0--3-----------5--3--1--|--7-----0-----0-----0-----|


   E  E  E  E  E  E  E  E     E  E  E  E  E  E  E  E   
---------------------------|--------------------------|
---------------------------|--------------------------|
------5-----5-----5-----5--|-----5-----5-----5-----5--|
--10-----0-----0-----0-----|--8-----0-----0-----0-----|


  E  E  E  E  E  E  E  E     W                   S S S S Q    E  E  E  E   
--------------------------|-------------------|---------------------------|
--------------------------|-------------------|---------------------------|
--------0--5--1-----------|-------------------|---------------------------|
--0--3-----------5--3--1--|--0----------------|--0-0-0-0-0-------0-----0--|


  S S S S Q    E  E  E  E     S S S S Q    E  E  E  E   
---------------------------|---------------------------|
---------------------------|---------------------------|
---------------------------|---------------------------|
--0-0-0-0-0-------0-----0--|--0-0-0-0-0-------0-----0--|


  S S S S S S S S S S S S S S S S    S S S S Q    E  E  E  E   
----------------------------------|---------------------------|
----------------------------------|---------------------------|
----------------------------------|---------------------------|
--7-0-0-0-5-0-0-0-7-0-0-0-3-0-0-0-|--0-0-0-0-0-------0-----0--|


  S S S S Q    E  E  E  E     S S S S Q    E  E  E  E   
---------------------------|---------------------------|
---------------------------|---------------------------|
---------------------------|---------------------------|
--0-0-0-0-0-------0-----0--|--0-0-0-0-0-------0-----0--|


  S S S S S S S S S S S S S S S S      S S S S Q    E  E  E  E   
----------------------------------||----------------------------|
----------------------------------||*---------------------------|
----------------------------------||*---------------------------|
--7-0-0-0-5-0-0-0-7-0-0-0-3-0-0-0-||---0-0-0-0-0-------0-----0--|


  S S S S Q    E  E  E  E     S S S S Q    E  E  E  E   
---------------------------|---------------------------|
---------------------------|---------------------------|
---------------------------|---------------------------|
--0-0-0-0-0-------0-----0--|--0-0-0-0-0-------0-----0--|


  S S S S S S S S S S S S S S S S      E  E  E  E  E  E  E  E   
-----------------------------------||--------------------------|
----------------------------------*||--------------------------|
----------------------------------*||-----5-----5-----5-----5--|
--7-0-0-0-5-0-0-0-7-0-0-0-3-0-0-0--||--7-----0-----0-----0-----|


  E  E  E  E  E  E  E  E     E  E  E  E  E  E  E  E   
--------------------------|--------------------------|
--------------------------|--------------------------|
-----5-----5-----5-----5--|-----5-----5-----5-----5--|
--8-----0-----0-----0-----|--7-----0-----0-----0-----|


  E  E  E  E  E  E  E  E     E  E  E  E  E  E  E  E   
--------------------------|--------------------------|
--------------------------|--------------------------|
--------0--5--1-----------|-----5-----5-----5-----5--|
--0--3-----------5--3--1--|--7-----0-----0-----0-----|


   E  E  E  E  E  E  E  E     E  E  E  E  E  E  E  E   
---------------------------|--------------------------|
---------------------------|--------------------------|
------5-----5-----5-----5--|-----5-----5-----5-----5--|
--10-----0-----0-----0-----|--8-----0-----0-----0-----|


  E  E  E  E  E  E  E  E     S S S S Q    E  E  E  E   
--------------------------|---------------------------|
--------------------------|---------------------------|
--------0--5--1-----------|---------------------------|
--0--3-----------5--3--1--|--0-0-0-0-0-------0-----0--|


  S S S S Q    E  E  E  E     S S S S Q    E  E  E  E   
---------------------------|---------------------------|
---------------------------|---------------------------|
---------------------------|---------------------------|
--0-0-0-0-0-------0-----0--|--0-0-0-0-0-------0-----0--|


  S S S S S S S S S S S S S S S S    S S S S Q    E  E  E  E   
----------------------------------|---------------------------|
----------------------------------|---------------------------|
----------------------------------|---------------------------|
--7-0-0-0-5-0-0-0-7-0-0-0-3-0-0-0-|--0-0-0-0-0-------0-----0--|


  S S S S Q    E  E  E  E     S S S S Q    E  E  E  E     Q.     Q.     Q     
---------------------------|---------------------------|---------------------|
---------------------------|---------------------------|---------------------|
---------------------------|---------------------------|---------------------|
--0-0-0-0-0-------0-----0--|--0-0-0-0-0-------0-----0--|--7------5------3----|


    S S S S Q    E  E  E  E     S S S S Q    E  E  E  E   
|----------------------------|---------------------------|
|*---------------------------|---------------------------|
|*---------------------------|---------------------------|
|---0-0-0-0-0-------0-----0--|--0-0-0-0-0-------0-----0--|


  S S S S Q    E  E  E  E     S S S S S S S S S S S S S S S S    
---------------------------|-----------------------------------||
---------------------------|----------------------------------*||
---------------------------|----------------------------------*||
--0-0-0-0-0-------0-----0--|--7-0-0-0-5-0-0-0-7-0-0-0-3-0-0-0--||


  S S S S S S S S S S S S S S S S    S S S S E  E  Q    Q     
----------------------------------|--------------------------|
----------------------------------|--------------------------|
----------------------------------|--------------------------|
--1-0-0-0-3-0-0-0-1-0-0-0-3-0-0-0-|--0-0-0-0-0--0------------|


  Q    Q    S S S S E  E                     S S S S E  E  Q    Q     
--------------------------|-------|-------|--------------------------|
--------------------------|-------|-------|--------------------------|
--------------------------|-------|-------|--------------------------|
------------0-0-0-0-0--0--|-------|-------|--0-0-0-0-0--0------------|


  Q    Q    S S S S E  E     W                         
--------------------------|-------------------|-------|
--------------------------|-------------------|-------|
--------------------------|-------------------|-------|
------------0-0-0-0-0--0--|-------------------|-------|


  S S S S E  E  Q    Q       Q    Q    S S S S E  E                   
--------------------------|--------------------------|-------|-------|
--------------------------|--------------------------|-------|-------|
--------------------------|--------------------------|-------|-------|
--0-0-0-0-0--0------------|------------0-0-0-0-0--0--|-------|-------|


  S S S S E  E  Q    Q       Q    Q    S S S S E  E                   
--------------------------|--------------------------|-------|-------|
--------------------------|--------------------------|-------|-------|
--------------------------|--------------------------|-------|-------|
--0-0-0-0-0--0------------|------------0-0-0-0-0--0--|-------|-------|


  W                   W                   W                 
-------------------|-------------------|-------------------|
-------------------|-------------------|-------------------|
-------------------|-------------------|-------------------|
--0----------------|--L----------------|--L----------------|


  H        H           W                   W                 
--------------------|-------------------|-------------------|
--------------------|-------------------|-------------------|
--------------------|-------------------|-------------------|
--5--------8--------|--0----------------|--L----------------|


  W                   H        H           W                 
-------------------|--------------------|-------------------|
-------------------|--------------------|-------------------|
-------------------|--------------------|-------------------|
--L----------------|--5--------8--------|--0----------------|


  W                   W                   H        H         
-------------------|-------------------|--------------------|
-------------------|-------------------|--------------------|
-------------------|-------------------|--------------------|
--L----------------|--L----------------|--5--------8--------|


  W                   W                   W                 
-------------------|-------------------|-------------------|
-------------------|-------------------|-------------------|
-------------------|-------------------|-------------------|
--0----------------|--L----------------|--L----------------|


  H        H           E  E  S S S S E  E  S S S S  
--------------------|------------------------------|
--------------------|------------------------------|
--------------------|------------------------------|
--5--------8--------|--0--0--0-0-0-0-0--0--0-0-0-0-|


  E  E  S S S S E  E  S S S S    E  E  S S S S E  E  S S S S  
------------------------------|------------------------------|
------------------------------|------------------------------|
------------------------------|------------------------------|
--0--0--0-0-0-0-0--0--0-0-0-0-|--0--0--0-0-0-0-0--0--0-0-0-0-|


  S S S S S S S S S S S S S S S S    E  E  S S S S E  E  S S S S  
----------------------------------|------------------------------|
----------------------------------|------------------------------|
----------------------------------|------------------------------|
--7-0-0-0-5-0-0-0-7-0-0-0-3-0-0-0-|--0--0--0-0-0-0-0--0--0-0-0-0-|


  E  E  S S S S E  E  S S S S    E  E  S S S S E  E  S S S S  
------------------------------|------------------------------|
------------------------------|------------------------------|
------------------------------|------------------------------|
--0--0--0-0-0-0-0--0--0-0-0-0-|--0--0--0-0-0-0-0--0--0-0-0-0-|


  S S S S S S S S S S S S S S S S    E  E  S S S S E  E  S S S S  
----------------------------------|------------------------------|
----------------------------------|------------------------------|
----------------------------------|------------------------------|
--7-0-0-0-5-0-0-0-7-0-0-0-3-0-0-0-|--0--0--0-0-0-0-0--0--0-0-0-0-|


  E  E  S S S S E  E  S S S S    E  E  S S S S E  E  S S S S  
------------------------------|------------------------------|
------------------------------|------------------------------|
------------------------------|------------------------------|
--0--0--0-0-0-0-0--0--0-0-0-0-|--0--0--0-0-0-0-0--0--0-0-0-0-|


  S S S S S S S S S S S S S S S S    S S S S S S S S S S S S  S S S S  
----------------------------------|-----------------------------------|
----------------------------------|-----------------------------------|
----------------------------------|-----------------------------------|
--7-0-0-0-8-0-0-0-7-0-0-0-8-0-0-0-|--8-0-0-0-7-0-0-0-8-0-0-0-10-0-0-0-|


                                                         W         
   S S S S  S S S S  S S S S  S S S S    S S S S S S S S H         
--------------------------------------|---------------------------|
--------------------------------------|---------------------------|
--------------------------------------|---------------------------|
--12-0-0-0-10-0-0-0-12-0-0-0-13-0-0-0-|--5-0-0-0-3-0-0-0-3--------|


  E  E  E  E  E  E  E  E     E  E  E  E  E  E  E  E   
--------------------------|--------------------------|
--------------------------|--------------------------|
-----5-----5-----5-----5--|-----5-----5-----5-----5--|
--7-----0-----0-----0-----|--8-----0-----0-----0-----|


  E  E  E  E  E  E  E  E     E  E  E  E  E  E  E  E   
--------------------------|--------------------------|
--------------------------|--------------------------|
-----5-----5-----5-----5--|--------0--5--1-----------|
--7-----0-----0-----0-----|--0--3-----------5--3--1--|


  E  E  E  E  E  E  E  E      E  E  E  E  E  E  E  E   
--------------------------|---------------------------|
--------------------------|---------------------------|
-----5-----5-----5-----5--|------5-----5-----5-----5--|
--7-----0-----0-----0-----|--10-----0-----0-----0-----|


  E  E  E  E  E  E  E  E     E  E  E  E  E  E  E  E   
--------------------------|--------------------------|
--------------------------|--------------------------|
-----5-----5-----5-----5--|--------0--5--1-----------|
--8-----0-----0-----0-----|--0--3-----------5--3--1--|


  E  E  E  E  E  E  E  E     E  E  E  E  E  E  E  E   
--------------------------|--------------------------|
--------------------------|--------------------------|
-----5-----5-----5-----5--|-----5-----5-----5-----5--|
--7-----0-----0-----0-----|--8-----0-----0-----0-----|


  E  E  E  E  E  E  E  E     E  E  E  E  E  E  E  E   
--------------------------|--------------------------|
--------------------------|--------------------------|
-----5-----5-----5-----5--|--------0--5--1-----------|
--7-----0-----0-----0-----|--0--3-----------5--3--1--|


  E  E  E  E  E  E  E  E      E  E  E  E  E  E  E  E   
--------------------------|---------------------------|
--------------------------|---------------------------|
-----5-----5-----5-----5--|------5-----5-----5-----5--|
--7-----0-----0-----0-----|--10-----0-----0-----0-----|


  E  E  E  E  E  E  E  E     E  E  E  E  E  E  E  E   
--------------------------|--------------------------|
--------------------------|--------------------------|
-----5-----5-----5-----5--|--------0--5--1-----------|
--8-----0-----0-----0-----|--0--3-----------5--3--1--|


  S S S S E  E  Q    Q       Q    Q    S S S S E  E                   
--------------------------|--------------------------|-------|-------|
--------------------------|--------------------------|-------|-------|
--------------------------|--------------------------|-------|-------|
--0-0-0-0-0--0------------|------------0-0-0-0-0--0--|-------|-------|


  S S S S E  E  Q    Q       Q    Q    S S S S E  E                   
--------------------------|--------------------------|-------|-------|
--------------------------|--------------------------|-------|-------|
--------------------------|--------------------------|-------|-------|
--0-0-0-0-0--0------------|------------0-0-0-0-0--0--|-------|-------|


  S S S S E  E  Q    Q       Q    Q    S S S S E  E                   
--------------------------|--------------------------|-------|-------|
--------------------------|--------------------------|-------|-------|
--------------------------|--------------------------|-------|-------|
--0-0-0-0-0--0------------|------------0-0-0-0-0--0--|-------|-------|


  S S S S E  E  Q    Q       Q    Q    S S S S E  E           
--------------------------|--------------------------|-------|
--------------------------|--------------------------|-------|
--------------------------|--------------------------|-------|
--0-0-0-0-0--0------------|------------0-0-0-0-0--0--|-------|


  H        E  E  E  E     W                  
-----------------------|-------------------||
-----------------------|-------------------||
-----------------------|-------------------||
-----------5--8--7--3--|--0----------------||




Duration Legend
---------------
W - whole
H - half
Q - quarter
E - 8th
S - 16th
T - 32nd
X - 64th
. - note dotted
|-n-|  - n-tuplets


Tablature Legend
----------------
L - tied note
x - dead note
g - grace note
(n) - ghost note
> - accentuded note
NH - natural harmonic
AH - artificial harmonic
TH - tapped harmonic
SH - semi harmonic
PH - pitch harmonic
h - hammer on
p - pull off
b - bend
br - bendRelease
pb - preBend
pbr - preBendRelease
brb - bendReleaseBend
\n/ - tremolo bar dip
\n - tremolo bar dive
-/n - tremolo bar Release up
/n\ - tremolo bar inverted dip
/n - tremolo bar return
-\n - tremolo bar Release down
S - shift slide
s - legato slide
/ -  slide into from below or out of upwards
\ -  slide into from above or out of downwards
~ - vibrato
W - wide vibrato
tr - trill
TP - tremolo picking
T - tapping
S - slap
P - pop
< - fade in
^ - brush up
v - brush down
Suggest correction
Creating personal tab
Creating personal tab
You can edit any tab online and save it as your Personal.

You can edit, replace or remove any tab part or add personal notes – all changes will be seen only by you.

Personal tabs can be accessed anytime from any device, even offline.
Learn more »
comments
print report bad tab
guest
You may want to rate the tab now too:
select rating
Wanna post a correction for this tab? Suggest correction