Oops, an error
Loading. Please wait.
We have an official Nothing Left tab made by UG professional guitarists. Check out the tab »
×
32,154 views 3 this week
4 commentsread comments
1 2 3 4 5
x 12
add to favorites
×
Save as Personal and add changes to this tab that will be seen only by you. Learn more ›
×
You can save this tab as Personal to edit and correct it or add notes. All changes will be seen only by you. Learn more »
launch autoscroll
font size
0
reset
how to read this tab
guitar tuner
backing track
0:00
0:00
edit
Autoscroll
slow
fast
+/-
esc
set tempo
stop
Author
Difficulty
-------------------------------------------------------------------------------
                           NOTHING LEFT - As I Lay Dying
-------------------------------------------------------------------------------
Tabbed by: brandon5pennies
Email: brandon.nickel@comcast.net

Tuning: CGCFAD

I saw them live the other night and I'm pretty sure this is how they played it. Not 
big stretches like some of the tabs I've seen. Also If you can't hit the 10 5 just hit 10 
0 on that string and it'll get the same effect I'm just tabbing how I saw it played live.

D|-------------------------------------------------------------------|
A|-------------------------------------------------------------------|
F|-------------------------------------------------------------------|
C|-7---------------8---------------7---------------------------------|
G|---5---5---5---5---5---5---5---5--5---5---5---5------1-0-----------|
C|-----0---0---0-------0---0---0------0---0---0---0-1-3----7-1-3-----|

D|-------------------------------------------------------------------|
A|-------------------------------------------------------------------|
F|-------------------------------------------------------------------|
C|-7---------------10---------------8--------------------------------|
G|---5---5---5---5----5---5---5---5--5---5---5---5------1-0----------|
C|-----0---0---0--------0---0---0------0---0---0---0-1-3----7-1-3----|

| /  slide up
| \  slide down
| h  hammer-on
| p  pull-off
| ~  vibrato
| +  harmonic
| x  Mute note
===============================================================================
Suggest correction
Creating personal tab
Creating personal tab
You can edit any tab online and save it as your Personal.

You can edit, replace or remove any tab part or add personal notes – all changes will be seen only by you.

Personal tabs can be accessed anytime from any device, even offline.
Learn more »
comments
print report bad tab
4 comments total. Showing first comments.
+1 reply
/-Vince-\ 234 Nov 20, 2007 07:38 AM

no big stretches? what do you call 7 -1 ?...you gotta have some pretty long fingers dont you? haha just kidding

0 reply
brandon5pennies 67 Jan 05, 2008 08:50 PM

haha i meant 5 to 1 i typed it out incorrectly

0 reply
rebofthetemple 61 Jan 19, 2008 09:59 AM

instead of 10 you can play 5 on the high C string

guest
You may want to rate the tab now too:
select rating
Wanna post a correction for this tab? Suggest correction