Oops, an error
Loading. Please wait.

Parallels Tab

version 5
version 5

Whole song

Interactive

7,245 views 24 this week
1 commentread comment
1 2 3 4 5
please rate
add to favorites
launch autoscroll
font size
0
reset
how to read this tab
guitar tuner
Autoscroll
slow
fast
+/-
esc
set tempo
stop
Help us to improve Ultimate-Guitar.com Take our survey!
×
Difficulty
intermediate
Hi guys, I'm an amateur and this is my first contribution to the site hope you like it,
this is my version of the song Parallels BY AS I LAY DYING .. look at the tuning so that
no confusion ...... I hope this clear tablature .... ok there is.

the open string is PALM MUTTING

Tunning:

1 :D               PALM MUTTING: P.M
2 :A               SLIDE : /
3 :F                HAMMER ON: H
4 :D               PULL OFF:  p
5 :G               SUSTAIN ?? : z
6 :D               BEND: b (NOTE)
                   HARMONIC: H.C

Intro

  Guitar 1
|------------------------------------------------------------------------------|
|------------------------------------------------------------------------------|
|------------------------------------------------------------------------------|  x5
|---------------------------7--------------------------------------------------|
|-9-10P-9--7--------7-7--------7----7------7--7-----7-----7--7---7-7--------7--|
|-------------10/12-----0-x-------x----------x---0-----0-x--x--x------0-12-----|




Verse

Guitars 1 and 2:
|----------------------------------------------------------------------------|
|----------------------------------------------------------------------------|
|----------------------------------------------------------------------------|
|--------7----------------------------------------7--------------------------|
|-7--------7---7-------7--9---10----12---7---------7--7------7-9---10--------|
|---0-0------0---0-0--------0-----0---------0-0------0---0-0-----0-----------|
    P.M     P.M  P.M       P.M   P.M        P.M     P.M  P.M    P.M


|----------------------------------------------------------------------------|
|----------------------------------------------------------------------------|
|----------------------------------------------------------------------------|
|----------------------7-------------------------------7---7-3------3--------|
|---------9-7-----7-------7---7------7--9---10---12--------------3-----5-----|
|-0-7H10-----------0-0-----0---0-0-------0----0----0----0--------------------|
 P.M               P.M   P.M   P.M      P.M  P.M  P.M  P.M


|--------------------------------------|
|--------------------------------------|
|-------------5P-4---------------------|  X2
|------2H-3--------2--3----------------|
|--------------------------------------|
|--0-0------0--------------------------|
   P.M     P.M




Heavy Breakdown

Guitar 1
|-----------------------------------|
|-----------------------------------|
|-----------------------------------|
|-----------------------------------|  X4
|-7--------7------7--7---7-----7----|
|---0-x--0---0--0--x------0-12------|


Guitar 2
|------------------------------------|
|------------------------------------|
|------------------------------------|
|------------------------------------|  X8
|-0-0-0--0-0-0--0-0-0-0--0-0-0-0-----|
|-0-0-0--0-0-0--0-0-0-0--0-0-0-0-----|
   P.M    P.M     P.M      P.M



the second riff guitar 2 is:

Guitar 2
|-----------------------------|                        To play this part you should do it 2 times.
|-----------------------------|                         FIRTS  TIMES YOU SHOULD DO IT WITH
|-9------9---9-9--9----9---9--|                         PALM MUTTING
|---0-x----0-----x-------0----|   X2
|-----------------------------|
|-----------------------------|


After you should repeat the first verse


Now the next riff:


  Guitar 1
|--------------------------------------------------------------------------|
|--------------------------------------------------------------------------|
|--------------------------------------------------------------------------|
|-3-----3-----3------3---3--5---5---3----3----3-------3------2---2---------|  X2
|---7-----7-----7------7--------------7----7----7--------7-6---------------|
|-----0-----0-----0-----------0---------0----0----0-------------0----------|
     P.M   P.M   P.M          P.M       P.M   P.M   P.M           P.M

Guitar 2
|------------------------------------------------------------------------------|
|------------------------------------------------------------------------------|
|------------------------------------------------------------------------------|
|-0-----0-----0-------0---0---1--1---0----0----0---------0-------2---2---------|  X2
|---2-----2-----2-------2---------------7----7----7---------2-1----------------|
|-----0-----0-----0-------------0---------0----0----0---------------0----------|
      P.M   P.M   P.M          P.M       P.M   P.M   P.M           P.M

Chorus:

Guitar 1

|---------------------------------------------------------------------------------|
|---------------------------------------------------------------------------------|
|-14-16h14-12--------12-12------12---12----12---12----12------12----12------------|
|--------------14/16---------0-x----x----0-----x----0------0-x-----x-----x--------|
|---------------------------------------------------------------------------------|
|---------------------------------------------------------------------------------|




|---------------------------------------------------|
|---------------------------------------------------|
|--12-12-------12-----------------------------------|              X5
|---------0--x--------------------------------------|
|---------------------------------------------------|
|---------------------------------------------------|



 Guitar 2
|--------------------------------------------------------------------------------|
|--------------------------------------------------------------------------------|
|-11-12h11--9--------9--9-------.9----9-----9----9------9------9------9----------|
|--------------10/12---------0-x----x----0-----x----0------0-x-----x-----x-------|
|--------------------------------------------------------------------------------|
|--------------------------------------------------------------------------------|




|-----------------------------------|
|-----------------------------------|
|--9--9---------9-------------------|
|---------0--x----------------------|  X5
|-----------------------------------|
|-----------------------------------|


The next riff is:

Guitar 1

|-----------------------------------------------------------------------------|
|-----------------------------------------------------------------------------|
|-----------------------------------------------------------------------------|
|-3-----3-----3------3---3--5----5---3----3----3-------3--------2----2--------|  X2
|---7-----7-----7------7----------------7----7----7--------7-6----------------|
|-----0-----0-----0------------0----------0----0----0--------------0----------|
     P.M   P.M   P.M          P.M       P.M   P.M   P.M           P.M


|---------------------------------------------------------------------------------|
|---------------------------------------------------------------------------------|
|---------------------------------------------------------------------------------|
|-7-----7-----7-----7----7--8----8----7----7-----7-----7------------5----5--------|
|---10----10----10----10----------------10---10---10-----10--9--7-----0-----------|
|------0-----0-----0-----------0------------0----0----0---------------------------|
      P.M   P.M   P.M         P.M          P.M  P.M   P.M             P.M


                                                                H.C
|-----------------------------------------------------------------------------|
|-----------------------------------------------------------------------------|
|----------------------------------------------------------------9------------|
|-7-----7-----7-----7----7--8----8----7----7-----7-----7----------------------|
|---10----10----10----10----------------10---10---10-----10-------------------|
|------0-----0-----0-----------0------------0----0----0------0----------------|
       P.M   P.M   P.M         P.M          P.M  P.M  P.M    P.M

Guitar 2

|------------------------------------------------------------------------------|
|------------------------------------------------------------------------------|
|------------------------------------------------------------------------------|
|-0-----0-----0-------0---0---1--1---0----0----0---------0-------2---2---------|  X2
|---2-----2-----2-------2---------------7----7----7---------2-1----------------|
|-----0-----0-----0-------------0---------0----0----0---------------0----------|
      P.M   P.M   P.M          P.M       P.M   P.M   P.M           P.M


|-----------------------------------------------------------------------------|
|-----------------------------------------------------------------------------|
|-----------------------------------------------------------------------------|
|-3-----3-----3------3---3--5----5---3----3----3-------3--------2----2--------|
|---7-----7-----7------7----------------7----7----7--------7-6----------------|
|-----0-----0-----0------------0----------0----0----0--------------0----------|
     P.M   P.M   P.M         P.M          P.M  P.M  P.M           P.M


                                                                H.C
|--------------------------------------------------------------------------|
|--------------------------------------------------------------------------|
|----------------------------------------------------------------4---------|
|-3-----3-----3------3---3--5----5---3----3----3-------3-------------------|
|---7-----7-----7------7----------------7----7----7--------7---------------|
|-----0-----0-----0------------0----------0----0----0---------0------------|
      P.M   P.M   P.M         P.M          P.M  P.M  P.M    P.M



You already know the chorus......




 Guitar 1

|-------------------------------------------------------------------------|
|-------------------------------------------------------------------------|
|-------------------------------------------------------------------------|
|-0-----------------------------------------------------------------------|
|-2-----------------------------------------------------------------------|
|-0-----------------------------------------------------------------------|


Guitar 2

|-------------------------------|
|-------------------------------|
|-9------9---9-9--9----9---9----|
|---0-x----0-----x-------0------|   X1
|-------------------------------|
|-------------------------------|


 Guitar 1

|------------------------------------------------------------------|
|------------------------------------------------------------------|
|------------------------------------------------------------------|
|-0-0---0-0---0-0---0-0---0-0-0-0-7-7---7-7---7-7---7-7---7-7-7-7--|
|-2-2---2-2---2-2---2-2---2-2-2-2-9-9---9-9---9-9---9-9---9-9-9-9--|
|-0-0---0-0---0-0---0-0---0-0-0-0-7-7---7-7---7-7---7-7---7-7-7-7--|



|------------------------------------------------------------------|
|------------------------------------------------------------------|
|------------------------------------------------------------------|
|-3-3---3-3---3-3---3-3---3-3-3-3-5-5---5-5---5-5---5-5---5-5-5-5--|  X4
|-5-5---5-5---5-5---5-5---5-5-5-5-7-7---7-7---7-7---7-7---7-7-7-7--|
|-3-3---3-3---3-3---3-3---3-3-3-3-5-5---5-5---5-5---5-5---5-5-5-5--|


  Guitar 2 (solo 1)
|---------------------------------------------------------------------------|
|--------17-z-z-z-z-15-----------------------12-z-z-z-z------7z-z-z---------|
|-16-z-z---------------z-z-16-z-z-z-z-14-z-z------------9z-z----------------|
|------------------------------------------------------------------7-z-z----|
|---------------------------------------------------------------------------|
|---------------------------------------------------------------------------|



|-------------------------------------------------------------------------------|
|-17-z-z----z-z-17-z-15-z-z-------------------12-----------15-z-z-17z-z---------|
|--------16-----------------16-z-z-z-z-14-z-z----z-z-z-z---------------16-z-----|
|-------------------------------------------------------------------------------|
|-------------------------------------------------------------------------------|
|-------------------------------------------------------------------------------|



|-------------------------------------------------------------------------|
|--------17-z-z-z-z-15-----------------------12-z-z-z-z------7z-z-z-------|
|-16-z-z---------------z-z-16-z-z-z-z-14-z-z------------9z-z--------------|
|------------------------------------------------------------------7-z-z--|
|-------------------------------------------------------------------------|
|-------------------------------------------------------------------------|



|----------------------------------------------------------------------------|
|----------------------------------------------------------------15----------|
|---------------14-z------16-14-z-16-----------16-14-z-12-14-16----z-z-16----|
|--------14-z-z------16-z------------16-z-17-z-------------------------------|
|-14-z-z---------------------------------------------------------------------|
|----------------------------------------------------------------------------|
|
|----------|
|-z-z-15-z-|
|----------|
|----------|
|----------|
|----------|


Ok NOW SECOND GUITAR SOLO

Some licks you can use differents  techniques , used the techniques  with which more comfortable.


Guitar 1 (SOLO 2)

|--------------12-14-14b-(16)---14p12-----12------------------|
|-15(17)-z-z-z-------------------------15---------------------|
|----------------------------------------------14(16)-z-z-----|
|-------------------------------------------------------------|
|-------------------------------------------------------------|
|-------------------------------------------------------------|



|---------------------------------|
|-15p12-15-17p15---12-------------|            If you want ,you can do it with Tapping
|---------------------------------|
|---------------------------------|  X3
|---------------------------------|
|---------------------------------|



|---------------------------------------|
|-17b(19)--(17)p-15-12p---17p-15--12----|
|---------------------------------------|
|---------------------------------------|
|---------------------------------------|
|---------------------------------------|



|-14----15p-14-12-14p-12----7h10p7-------------------------------------------------|
|-----------------------------------10p8p7p-----7h8h10h/12-/10-8p7h10p8p7----------|
|--------------------------------------------9-------------------------------9z----|
|----------------------------------------------------------------------------------|
|----------------------------------------------------------------------------------|
|----------------------------------------------------------------------------------|



|--7b-(8)--------------------------------------|
|----------10--7-----7-7---7h8-/10-------------|
|----------------------------------------------|
|----------------------------------------------|
|----------------------------------------------|
|----------------------------------------------|



|---------------------------------------------------------------------------------------|
|--------------------------------------------12----12--15-15b(16)-(15)p-12-----12-15----|
|---------9----9h-11-9h11h12/-14---12-12h-14----14-------------------------14-----------|
|-10p7h10---10--------------------------------------------------------------------------|
|---------------------------------------------------------------------------------------|
|---------------------------------------------------------------------------------------|



|--12h14p12-----12-14-15--17p15p14-------14-15-17---19p17p15-----15-17-19p17p15--------|
|------------15----------------------17-----------------------19-----------------19----|
|--------------------------------------------------------------------------------------|
|--------------------------------------------------------------------------------------|
|--------------------------------------------------------------------------------------|
|--------------------------------------------------------------------------------------|




|-15-17-19-------22b(24)-------------|
|------------------------------------|
|------------------------------------|
|------------------------------------|
|------------------------------------|
|------------------------------------|



The guitar 2 complement the solo with the rhythm of the guitar 1

Guitar 2
|---------------------------------------------------------------------|
|---------------------------------------------------------------------|
|---------------------------------------------------------------------|
|-0-0---0-0---0-0---0-0---0-0-0-0-7-7---7-7---7-7---7-7---7-7-7-7-----|
|-2-2---2-2---2-2---2-2---2-2-2-2-9-9---9-9---9-9---9-9---9-9-9-9-----|
|-0-0---0-0---0-0---0-0---0-0-0-0-7-7---7-7---7-7---7-7---7-7-7-7-----|



|--------------------------------------------------------------------|
|--------------------------------------------------------------------|
|--------------------------------------------------------------------|
|-3-3---3-3---3-3---3-3---3-3-3-3-5-5---5-5---5-5---5-5---5-5-5-5----|  X4
|-5-5---5-5---5-5---5-5---5-5-5-5-7-7---7-7---7-7---7-7---7-7-7-7----|
|-3-3---3-3---3-3---3-3---3-3-3-3-5-5---5-5---5-5---5-5---5-5-5-5----|



Ok is too late ...comming soon i will submit the next part , its really simple, while
you have the solo ......see you latter.........
Suggest correction new What's this?
You can suggest a correction to this tab. Community and Mods will review your correction and vote to approve or reject it.
comments
We did not receive enough feedback on this tab! Please rate:
print report bad tab
1 2 3 4 5
1 comment total.
0 reply
hhhhhhhh 32 wrote on July 11 2013, 08:55 pm

AMAZING! all i have to say i was watching the video of the two guitarist from as i lay dying play and this is almost spot on! thumbs up

guest
You may want to rate the tab now too:
select rating
Please do not post tabs as comments. Select "correction" instead!