Oops, an error
Loading. Please wait.

Reflection Tab

version 1
version 1

Whole song

13,823 views 27 this week
4 commentsread comments
1 2 3 4 5
accurate
x 7
add to favorites
launch autoscroll
font size
0
reset
how to read this tab
guitar tuner
Tab Pro tools
  • play this tab
  • loop segment
  • change instrument
  • show fretboard
  • metronome
Autoscroll
slow
fast
+/-
esc
set tempo
stop
Contributor
Tabbed By PeanutSandwich

Intro

Each note is picked a loads with alternate picking
d|------------------------------------------------------|
A|------------------------------------------------------|
F|------------------------------------------------------|
C|------------------------------------------------------| X 2
G|--8--10--7--5--10--8--7--5--8--10--7--5--12--10--8--7-|
C|------------------------------------------------------|
pm


Verse

d|-----------------------------------------------------------------|	}
A|-----------------------------------------------------------------|	}
F|-----------------------------------------------------------------|	}
C|------------------7---------------8------------------------------|	}
G|--8p5---------8p5---8-5-------8p5---8-5-------8p5---5----5----5--|	}
C|------000-000-----------0-000-----------0-000-----5---53---32----|	}
pm      ... ...           . ...           . ...     .   ..   ..		}
									}	X 3
d|-----------------------------------------------------------------|	}
A|-----------------------------------------------------------------|	}
F|-----------------------------------------------------------------|	}
C|------------------7---------------8------------------------------|	}
G|--8p5---------8p5---8-5-------8p5---8-5-------8p5---8----3---2h3-|	}
C|------000-000-----------0-000-----------0-000-----5---53---3-----|	}
pm      ... ...           . ...           . ...     .   ..   .		}


Chorus

d|------------------------------------------------------------------|	}
A|------------------------------------------------------------------|	}
F|------------------------------------------------------------------|	}
C|------------------------------------------------------------------|	}
G|--8----8----10---7---7---5---5---10----10----8---7---7---5---5----|	}
C|----00---00----0---0---0---0---0----00----00---0---0---0---0---0--|	}
pm    ..   ..    .   .   .   .   .    ..    ..   .   .   .   .   .	}
									}	X 2
d|------------------------------------------------------------------|	}
A|------------------------------------------------------------------|	}
F|------------------------------------------------------------------|	}
C|------------------------------------------------------------------|	}
G|--8----8----10---7---7---5---5---12----12----10---8---8---7---7---|	}
C|----00---00----0---0---0---0---0----00----00----0---0---0---0---0-|	}
pm    ..   ..    .   .   .   .   .    ..    ..    .   .   .   .   .	}

then one guitar plays chorus twice again while the other plays:

d|------------------------------------------------------------------|
A|------------------------------------------------------------------|
F|------------------------------------------------------------------|
C|--7----7----5---3---3---2---2---8----8----7---5---5---3---3-------|	X 4
G|------------------------------------------------------------------|
C|----00---00---0---0---0---0---0---00---00---0---0---0---0---0-----|
pm    ..   ..   .   .   .   .   .   ..   ..   .   .   .   .   .


Verse again


Bridge
I love this part!
Nick plays:
d|-------------------|
A|-------------------|
F|-------------------|
C|-------------------|
G|-------------------|
C|--000-000-000-000--|
pm  ... ... ... ...

then Phil plays:
d|-------------------|
A|-------------------|
F|-------------------|
C|-------------------|
G|-------------------|
C|--000-000-000-000--|
pm  ... ... ... ...

then kicks in with Nick playing:
d|------------------------------------------------------------------|
A|------------------------------------------------------------------|
F|------------------------------------------------------------------|
C|------------------------------------------------------------------|	X 4
G|------------------------------------------------------------------|
C|--000-000-000-0-0-000-000-000-0-0-000-000-000-0-0-000-000-000-0-0-|
pm  ... ... ... . . ... ... ... . . ... ... ... . . ... ... ... . .

While phil plays:
d|-----------------------------------------------------------------|
A|-----------------------------------------------------------------|
F|-----------------------------------------------------------------|
C|-----------------------------------------------------------------|
G|----------------------------------------------------5----5----5--|
C|--000-000-000-0-0-000-000-000-0-0-000-000-000-0-0-5---53---32----|
pm  ... ... ... . . ... ... ... . . ... ... ... . . .   ..   ..
									X 2
d|-----------------------------------------------------------------|
A|-----------------------------------------------------------------|
F|-----------------------------------------------------------------|
C|---------------------------------------------------------3---2h3-|
G|----------------------------------------------------8------------|
C|--000-000-000-0-0-000-000-000-0-0-000-000-000-0-0-5---53---3-----|
pm  ... ... ... . . ... ... ... . . ... ... ... . . .   ..   .

Then Verse, then Chorus to end on

d|-----------------------------------------------------------------|
A|-----------------------------------------------------------------|
F|-----------------------------------------------------------------|
C|---------------------------------------------------------3---2h3-|
G|----------------------------------------------------8------------|
C|--000-000-000-0-0-000-000-000-0-0-000-000-000-0-0-5---53---3-----|
pm  ... ... ... . . ... ... ... . . ... ... ... . . .   ..   .

d|-----|
A|-----|
F|--10-|
C|--10-|
G|--8--|
C|-----|
pm
comments
print report bad tab
4 comments total. Showing first comments.
0 reply
King ofKumbucha wrote on July 30 2006, 07:00 am

nice *****

0 reply
xDeathwishx wrote on June 3 2007, 11:36 am

Good tab.

0 reply
darksantana wrote on July 18 2007, 03:48 pm

but the last chord is
D|------------------------
A|------------------------
F|------------------------
C|------------------------
G|---8--------------------
C|---0--------------------

I want to post or [tab]
guest
You may want to rate the tab now too:
select rating
Please do not post tabs as comments. Select "correction" instead!