Oops, an error
Loading. Please wait.

Reflection Tab

version 3
version 3

Whole song

17,295 views 3 this week
2 commentsread comments
1 2 3 4 5
excellent!
x 10
add to favorites
launch autoscroll
font size
0
reset
how to read this tab
guitar tuner
Autoscroll
slow
fast
+/-
esc
set tempo
stop
Help us to improve Ultimate-Guitar.com Take our survey!
×
Author
Difficulty
intermediate
This is my first so rate it..
E-mail me @ ivanfrias12@yahoo.com for comments and suggestions.

Tuning: (CGCFAD) from low to high
Gtr I (C G C F A D)  : Distorted
Gtr II (C G C F A D) : Distorted

Legends:
~ - let ring
h - hammer
p - pull off
. - palm mute
x - dead note

Intro: (x2)  
  Both Guitars
   Tremolo Picking: 
|------------------------|----------------------|
|------------------------|----------------------|
|------------------------|----------------------|
|------------------------|----------------------|
|--8------10---7----5----|-10-----8---7----5----|
|------------------------|----------------------|
|                                                
|                                                                          
|------------------------|-----------------------|
|------------------------|-----------------------|
|------------------------|-----------------------|
|------------------------|-----------------------|
|-8------10---7----5-----|-12-----10--8----7-----|
|------------------------|-----------------------|

Pre Verse: (x1)
  
 Gtr I
||------------------------------------------------------------------------|
||------------------------------------------------------------------------|
||------------------------------------------------------------------------|
||-----------------7-----------------8------------------------------------|
||-8p5---------8p5---8-5---------8p5---8-5----------8p5----5-----5-----5--|
||-----000-000------------0-000-------------0-000---------5---5-3---3-2---|
|     ... ...             . ...             . ...         .   . .   . .
|
|  Gtr II
|------------------------------------------------------|------------------|
|------------------------------------------------------|------------------|
|------------------------------------------------------|------------------|
|-0~~~~~~~~~~~~~~~~~~~~~~~~~~~~~~~~~~~~~~~~~~~~~~~~~~~~|------------------|
|-0~~~~~~~~~~~~~~~~~~~~~~~~~~~~~~~~~~~~~~~~~~~~~~~~~~~~|----5-----5-----5-|
|-0~~~~~~~~~~~~~~~~~~~~~~~~~~~~~~~~~~~~~~~~~~~~~~~~~~~~|--5---5-3---3-2---|
                                                          .   . .   . .

  Gtr I
|------------------------------------------------------------------------|
|------------------------------------------------------------------------|
|------------------------------------------------------------------------|
|-----------------7-----------------8------------------------------------|
|-8p5---------8p5---8-5---------8p5---8-5----------8p5----8------8---7h8-|
|-----000-000------------0-000-------------0-000---------8---5-5---8-----|
|     ... ...            . ...             . ...         .   . .   . 
|
|  Gtr II
|------------------------------------------------------|-----------------||
|------------------------------------------------------|-----------------||
|------------------------------------------------------|-----------------||
|-0~~~~~~~~~~~~~~~~~~~~~~~~~~~~~~~~~~~~~~~~~~~~~~~~~~~~|-----------------||
|-0~~~~~~~~~~~~~~~~~~~~~~~~~~~~~~~~~~~~~~~~~~~~~~~~~~~~|---8-----8---7h8-||
|-0~~~~~~~~~~~~~~~~~~~~~~~~~~~~~~~~~~~~~~~~~~~~~~~~~~~~|-8---5-5---8-----||
                                                         .   . .   . .
Verse: (x2)
Both Guitars
 
||------------------------------------------------------------------------|
||------------------------------------------------------------------------|
||------------------------------------------------------------------------|
||-----------------7-----------------8------------------------------------|
||-8p5---------8p5---8-5---------8p5---8-5----------8p5----5-----5-----5--|
||-----000-000------------0-000-------------0-000---------5---5-3---3-2---|
|      ... ...            . ...             . ...         .   . .   . .
|  
|------------------------------------------------------------------------|
|------------------------------------------------------------------------|
|------------------------------------------------------------------------|
|-----------------7-----------------8------------------------------------|
|-8p5---------8p5---8-5---------8p5---8-5----------8p5----8------8---7h8-|
|-----000-000------------0-000-------------0-000---------8---5-5---8-----|
      ... ...            . ...             . ...         .   . .   . 
                                                                            part I Chorus: (x2)     

  Both Guitars 
||--------------------------------|----------------------------------|
||--------------------------------|----------------------------------|
||--------------------------------|----------------------------------|
||--------------------------------|----------------------------------|
||-8----8----10---7---7---5---5---|-10----10----8---7---7---5---5----|
||---00---00----0---0---0---0---0-|----88----88---8---8---8---8---8--|
|    ..   ..    .   .   .   .   .      ..    ..   .   .   .   .   .
|
|--------------------------------|-----------------------------------||
|--------------------------------|-----------------------------------||
|--------------------------------|-----------------------------------||
|--------------------------------|-----------------------------------||
|-8----8----10---7---7---5---5---|-12----12----10---8---8---7---7----||
|---00---00----0---0---0---0---0-|----88----88----8---8---8---8---8--||
    ..   ..    .   .   .   .   .      ..    ..    .   .   .   .   .
                                                                            

partII of Chorus: (x2)  
Guitar 1                                                           
||--------------------------------|----------------------------------|
||--------------------------------|----------------------------------|
||--------------------------------|----------------------------------|
||--------------------------------|----------------------------------|
||-8----8----10---7---7---5---5---|-10----10----8---7---7---5---5----|
||---00---00----0---0---0---0---0-|----88----88---8---8---8---8---8--|
|    ..   ..    .   .   .   .   .      ..    ..   .   .   .   .   .
|
|Guitar 2
|----------------------------------|-------------------------------------|
|----------------------------------|-------------------------------------|
|----------------------------------|-------------------------------------|
|----------------------------------|-------------------------------------|
|-12----12----10---8---8---7---7---|-13----13----12---10---10---8---8----|
|----00----00----0---0---0---0---0-|----88----88----8----8----8---8---8--|
     ..    ..    .   .   .   .   .      ..    ..    .    .    .   .   .

Guitar 1
|--------------------------------|-----------------------------------|
|--------------------------------|-----------------------------------|
|--------------------------------|-----------------------------------|
|--------------------------------|-----------------------------------|
|-8----8----10---7---7---5---5---|-12----12----10---8---8---7---7----|
|---00---00----0---0---0---0---0-|----88----88----8---8---8---8---8--|
|   ..   ..    .   .   .   .   .      ..    ..    .   .   .   .   .
|
|Guitar 2
|----------------------------------|--------------------------------------||
|----------------------------------|--------------------------------------||
|----------------------------------|--------------------------------------||
|----------------------------------|--------------------------------------||
|-12----12----10---8---8---7---7---|-8-----8-----7---12---12---10---10----||
|----00----00----0---0---0---0---0-|----55----55---5----8----8----8----8--||
     ..    ..    .   .   .   .   .      ..    ..   .    .    .    .    .

Repeat Verse 
then this  

Interlude part I: (x1)
Guitar 1
||-----------------|-----------------|
||-----------------|-----------------|
||-----------------|-----------------|
||-----------------|-----------------|
||-000-000-000-000-|-----------------|
||-000-000-000-000-|-----------------|
|  ... ... ... ...
|
|  Guitar                            
|------------------|-----------------||
|------------------|-----------------||
|------------------|-----------------||
|------------------|-----------------||
|------------------|-000-000-000-000-||
|------------------|-000-000-000-000-||
                     ... ... ... ...

Interlude part II: (x2)
   Guitar 1
||---------------------------------------------------------------------|
||---------------------------------------------------------------------|
||---------------------------------------------------------------------|
||---------------------------------------------------------------------|
||--000-000-000-0-0--000-000-000-0-0--000-000-000-0-0----5-----5-----5-|
||--000-000-000-0-0--000-000-000-0-0--000-000-000-0-0--5---5-3---3-2---|
||  ... ... ... . .  ... ... ... . .  ... ... ... . .  .   . .   . .   
||  Guitar 2
||---------------------------------------------------------------------|
||---------------------------------------------------------------------|
||---------------------------------------------------------------------|
||---------------------------------------------------------------------|
||--000-000-000-0-0--000-000-000-0-0--000-000-000-0-0--000-000-000-0-0-|
||--000-000-000-0-0--000-000-000-0-0--000-000-000-0-0--000-000-000-0-0-|
||  ... ... ... . .  ... ... ... . .  ... ... ... . .  ... ... ... . .   

  Guitar 1                                                                 
|----------------------------------------------------------------------||
|----------------------------------------------------------------------||
|----------------------------------------------------------------------||
|----------------------------------------------------------------------||
|-000-000-000-0-0--000-000-000-0-0--000-000-000-0-0--000-000-000-0-0---||
|-000-000-000-0-0--000-000-000-0-0--000-000-000-0-0--000-000-000-0-0---||
| ... ... ... . .  ... ... ... . .  ... ... ... . .  ... ... ... . .   ||
|  Guitar 2                                                            ||
|----------------------------------------------------------------------||
|----------------------------------------------------------------------||
|----------------------------------------------------------------------||
|----------------------------------------------------------------------||
|-000-000-000-0-0--000-000-000-0-0--000-000-000-0-0----8-----8---7h8---||
|-000-000-000-0-0--000-000-000-0-0--000-000-000-0-0--8---5-5---8-------||
| ... ... ... . .  ... ... ... . .  ... ... ... . .  .   . .   .   


Interlude part III (x2)
Guitar 1
||------------------------------------------------------------------------|
||------------------------------------------------------------------------|
||------------------------------------------------------------------------|
||-----------------7-----------------8------------------------------------|
||-8p5---------8p5---8-5---------8p5---8-5----------8p5----5-----5-----5--|
||-----000-000------------0-000-------------0-000---------5---5-3---3-2---|
|      ... ...            . ...             . ...         .   . .   . .
|
|Guitar 2  
|-------------------------------------------------------------------------|
|-------------------------------------------------------------------------|
|-------------------------------------------------------------------------|
|-------------------------------------------------------------------------|
|----------------------------------------------------------5-----5-----5--|
|------000-000------------0-000-------------0-000---------5---5-3---3-2---|
       ... ...            . ...             . ...         .   . .   . 

  
Guitar 1
||------------------------------------------------------------------------|
||------------------------------------------------------------------------|
||------------------------------------------------------------------------|
||-----------------7-----------------8------------------------------------|
||-8p5---------8p5---8-5---------8p5---8-5----------8p5----5-----5-----5--|
||-----000-000------------0-000-------------0-000---------5---5-3---3-2---|
|      ... ...            . ...             . ...         .   . .   . .
|
|Guitar 2  
|-------------------------------------------------------------------------||
|-------------------------------------------------------------------------||
|-------------------------------------------------------------------------||
|-------------------------------------------------------------------------||
|----------------------------------------------------------8------8---7h8-||
|------000-000------------0-000-------------0-000---------8---5-5---8-----||
       ... ...            . ...             . ...         .   . .   . 

then repeat this
part I Chorus: x1 (right below)    

  Both Guitars 
||--------------------------------|----------------------------------|
||--------------------------------|----------------------------------|
||--------------------------------|----------------------------------|
||--------------------------------|----------------------------------|
||-8----8----10---7---7---5---5---|-10----10----8---7---7---5---5----|
||---00---00----0---0---0---0---0-|----88----88---8---8---8---8---8--|
|    ..   ..    .   .   .   .   .      ..    ..   .   .   .   .   .
|
|--------------------------------|-----------------------------------||
|--------------------------------|-----------------------------------||
|--------------------------------|-----------------------------------||
|--------------------------------|-----------------------------------||
|-8----8----10---7---7---5---5---|-12----12----10---8---8---7---7----||
|---00---00----0---0---0---0---0-|----88----88----8---8---8---8---8--||
    ..   ..    .   .   .   .   .      ..    ..    .   .   .   .   .

after the upper part this...  
repeat part II Chorus (right below again) 

partII of Chorus: (x2)  
Guitar 1                                                           
||--------------------------------|----------------------------------|
||--------------------------------|----------------------------------|
||--------------------------------|----------------------------------|
||--------------------------------|----------------------------------|
||-8----8----10---7---7---5---5---|-10----10----8---7---7---5---5----|
||---00---00----0---0---0---0---0-|----88----88---8---8---8---8---8--|
|    ..   ..    .   .   .   .   .      ..    ..   .   .   .   .   .
|
|Guitar 2
|----------------------------------|-------------------------------------|
|----------------------------------|-------------------------------------|
|----------------------------------|-------------------------------------|
|----------------------------------|-------------------------------------|
|-12----12----10---8---8---7---7---|-13----13----12---10---10---8---8----|
|----00----00----0---0---0---0---0-|----88----88----8----8----8---8---8--|
     ..    ..    .   .   .   .   .      ..    ..    .    .    .   .   .

Guitar 1
|--------------------------------|-----------------------------------|
|--------------------------------|-----------------------------------|
|--------------------------------|-----------------------------------|
|--------------------------------|-----------------------------------|
|-8----8----10---7---7---5---5---|-12----12----10---8---8---7---7----|
|---00---00----0---0---0---0---0-|----88----88----8---8---8---8---8--|
|   ..   ..    .   .   .   .   .      ..    ..    .   .   .   .   .
|
|Guitar 2
|----------------------------------|--------------------------------------||
|----------------------------------|--------------------------------------||
|----------------------------------|--------------------------------------||
|----------------------------------|--------------------------------------||
|-12----12----10---8---8---7---7---|-8-----8-----7---12---12---10---10----||
|----00----00----0---0---0---0---0-|----55----55---5----8----8----8----8--||
     ..    ..    .   .   .   .   .      ..    ..   .    .    .    .    . 

then.....  
Outro:
 Both Guitars
|--------------|
|--------------|
|-10~~~~~~~~~~~|
|--x~~~~~~~~~~~|
|--8~~~~~~~~~~~|
|--0~~~~~~~~~~~|


check out our myspace account www.myspace.com/aimforonereason...
or at our purevolume account www.purevolume.com/aimforonereason....
tnx.. ^_^ 

Suggest correction new What's this?
You can suggest a correction to this tab. Community and Mods will review your correction and vote to approve or reject it.
comments
print report bad tab
2 comments total.
+1 reply
Iamacow 92 wrote on November 11 2010, 09:40 am

Damn good tab.

0 reply
JB95 1,056 wrote on August 19 2011, 04:07 pm

Fantastic.
Still a bit wierd that the upper harmony guitar plays a different lower note in some places like the second last measure...
and the different intervals in the verse result in the guitars being only one step away from eachother which I think is wierd, but I guess I could just check it out at Audacity, if the two tracks are seperated on two ears...

guest
You may want to rate the tab now too:
select rating
Please do not post tabs as comments. Select "correction" instead!