Oops, an error
Loading. Please wait.

Reinvention Tab

version 1
version 1

Whole song

Interactive

11,743 views 21 this week
5 commentsread comments
1 2 3 4 5
excellent!
x 9
add to favorites
launch autoscroll
font size
0
reset
how to read this tab
guitar tuner
Tab Pro tools
  • play this tab
  • loop segment
  • change instrument
  • show fretboard
  • metronome
Autoscroll
slow
fast
+/-
esc
set tempo
stop
Difficulty
intermediate
Song  - Reinvention (Re-Recorded)
Band  - As I Lay Dying
Album - A Long March: The First Recordings

This is a beast song and i got bored so i tabbed it, just to see if i could.
And it turns out that it's easier than it sounds. So if you don't agree 
with something or you just have some constructive critisizesm or something,
just let me know.  But it shoud be pretty close.

email: northerndarkness138@yahoo.com
Xfire: cradlethefilth

Tunning- C-G-C-F-A-D
         Low to High
 
     INTRO

     GTR 1
    D|--------------------------------------------------------------------------------------------------------------|
    A|--------------------------------------------------------------------------------------------------------------|
    F|--------------------------------------------------------------------------------------------------------------|
    C|------------------------------------(X2)----------------------------------------------------------------------| (x5)
    G|-----7---8---7---10---8---7---8--------------7---8---7---10---8---7---8--------7---8---7--10-8-7-8---10-8-7-8-|
    C|-0-0---0---0---0----0---0---0---0--------8-8---8---8---8----8---8---8---8--7-7---7---7------------------------|
 PM.   . .   .   .   .    .   .   .   .        . .   .   .   .    .   .   .   .  . .   .   .

     GTR 2
    D|--------------------------------------------------------------------------------------------------------------|
    A|--------------------------------------------------------------------------------------------------------------|
    F|--------------------------------------------------------------------------------------------------------------|
    C|-0-0--------------------------------(X2)-8---------------------------------7-7--------------------------------| (x1)
    G|-0-0-------------------------------------8~~~~~~~~~------------------------7-7--------------------------------|
    C|-0-0-------------------------------------8~~~~~~~~~------------------------7-7--------------------------------|
 PM.   . .                                                                       . .

     GTR 2
    D|--------------------------------------------------------------------------------------------------------------|
    A|--------------------------------------------------------------------------------------------------------------|
    F|--------------------------------------------------------------------------------------------------------------|
    C|-----------------------------------(X2)-----------------------------------------------------------------------| (x2)
    G|--------------------------------------------------------------------------------------------------------------|
    C|-0-0-0-0-0-0-0-0-0-0-0-0-0-0-0-0--------8-8-8-8-8-8-8-8-8-8-8-8-8-8-8-8---7-7-7-7-7-7-7-7-8-8-8-8--10-10-10-10|
 PM.   . . . . . . . . . . . . . . . .        . . . . . . . . . . . . . . . .   . . . . . . . . . . . .   .  .  .  .
     
     GTR 2
    F|--------------------------------------------------------------------------------------------------------------|
    A|--------------------------------------------------------------------------------------------------------------|
    D|--------------------------------------------------------------------------------------------------------------|
    C|-----5---7---5---8---7---5---7----(X2)-----5---7---5---8---7---5---7----------5---7---5--8-7-5-7---8-7-5-7----| (X2)
    G|--------------------------------------------------------------------------------------------------------------|
    C|-0-0---0---0---0---0---0---0---0-------8-8---8---8---8---8---8---8---8----7-7---7---7-------------------------|
 PM.   . .   .   .   .   .   .   .   .       . .   .   .   .   .   .   .   .    . .   .   .
      
     GTR 1 
    F|-----------------|----------------|----------------|----------------|-----------------------------------------|
    A|-----------------|----------------|----------------|----------------|-----------------------------------------|
    D|-----------------|----------------|----------------|----------------|-----------------------------------------|
    C|-----------------|----------------|----------------|----------------|-----------------------------------------| (X2)
    G|-5-7-0-8-7-0-7-0-|-5-7-0-8-7-0-7-0|-5-7-0-8-7-0-7-0|-5-7-0-8-7-0-7-0|-----------------------------------------|
    C|-----------------|----------------|----------------|----------------|-----------------------------------------|

     GTR 2
    F|-----------------|----------------|----------------|----------------|-----------------------------------------|
    A|-----------------|----------------|----------------|----------------|-----------------------------------------|
    D|-----------------|----------------|----------------|----------------|-----------------------------------------|
    C|-0~~~~~~~~~~~~~~~|-8~~~~~~~~~~~~~~|-7~~~~~~~~~~~~~~|-5~~~~~~~~~~~~~~|-----------------------------------------| (X2)
    G|-0~~~~~~~~~~~~~~~|-8~~~~~~~~~~~~~~|-7~~~~~~~~~~~~~~|-5~~~~~~~~~~~~~~|-----------------------------------------|
    C|-0~~~~~~~~~~~~~~~|-8~~~~~~~~~~~~~~|-7~~~~~~~~~~~~~~|-5~~~~~~~~~~~~~~|-----------------------------------------|

     GTR 1
    D|--------------------------------------------------------------------------------------------------------------|
    A|--------------------------------------------------------------------------------------------------------------|
    F|--------------------------------------------------------------------------------------------------------------|
    C|------------------------------------(X2)----------------------------------------------------------------------| (x2)
    G|-----7---8---7---10---8---7---8--------------7---8---7---10---8---7---8--------7---8---7--10-8-7-8---10-8-7-8-|
    C|-0-0---0---0---0----0---0---0---0--------8-8---8---8---8----8---8---8---8--7-7---7---7------------------------|
 PM.   . .   .   .   .    .   .   .   .        . .   .   .   .    .   .   .   .  . .   .   .

     GTR 2
    D|--------------------------------------------------------------------------------------------------------------|
    A|--------------------------------------------------------------------------------------------------------------|
    F|--------------------------------------------------------------------------------------------------------------|
    C|-----------------------------------(X2)-----------------------------------------------------------------------| (x2)
    G|--------------------------------------------------------------------------------------------------------------|
    C|-0-0-0-0-0-0-0-0-0-0-0-0-0-0-0-0--------8-8-8-8-8-8-8-8-8-8-8-8-8-8-8-8---7-7-7-7-7-7-7-7-8-8-8-8--10-10-10-10|
 PM.   . . . . . . . . . . . . . . . .        . . . . . . . . . . . . . . . .   . . . . . . . . . . . .   .  .  .  .
     
     GTR 1
    F|--------------------------------------------------------------------------------------------------------------|
    A|--------------------------------------------------------------------------------------------------------------|
    D|--------------------------------------------------------------------------------------------------------------|
    C|-0-0--0~~~~--0-0-0-0--0-0--0~~~~--0-0-0-----------------------------------------------------------------------| (X5)  The 1st time is where
    G|-0-0--0~~~~--0-0-0-0--0-0--0~~~~--0-0-0-----------------------------------------------------------------------|       They do the weird effect
    C|-0-0--0~~~~--0-0-0-0--0-0--0~~~~--0-0-0-----------------------------------------------------------------------|       for the notes after the
 PM.   . .         . . . .  . .         . . .                                                                               1st open hold note

     GTR 2
    F|--------------------------------------------------------------------------------------------------------------|
    A|--------------------------------------------------------------------------------------------------------------|
    D|--------------------------------------------------------------------------------------------------------------|
    C|-0-0--0~~~~--0-0-0-0------------------------------------------------------------------------------------------|       Plays on 3rd time
    G|-0-0--0~~~~--0-0-0-0--8/10--8-7---8-7-5-----------------------------------------------------------------------|
    C|-0-0--0~~~~--0-0-0-0------------------------------------------------------------------------------------------|
 PM.   . .         . . . .

     GTR 2
    F|--------------------------------------------------------------------------------------------------------------|
    A|--------------------------------------------------------------------------------------------------------------|
    D|--------------------------------------------------------------------------------------------------------------| 
    C|-0-0--0~~~~--0-0-0-0--0-0--0~~~~--8-7-5-----------------------------------------------------------------------|       Plays on 4th time   
    G|-0-0--0~~~~--0-0-0-0--0-0--0~~~~------------------------------------------------------------------------------|
    C|-0-0--0~~~~--0-0-0-0--0-0--0~~~~------------------------------------------------------------------------------|
 PM.   . .         . . . .  . .         

     GTR 2
    F|--------------------------------------------------------------------------------------------------------------|
    A|--------------------------------------------------------------------------------------------------------------|
    D|--------------------------------------------------------------------------------------------------------------|
    C|-0-0--0~~~~--0-0-0-0------------------------------------------------------------------------------------------|       Plays on 5th time
    G|-0-0--0~~~~--0-0-0-0--8/10--8-7---8-7-5-----------------------------------------------------------------------|
    C|-0-0--0~~~~--0-0-0-0------------------------------------------------------------------------------------------|
 PM.   . .         . . . .

     GTR 1 & 2
    F|--------------------------------------------------------------------------------------------------------------|
    A|--------------------------------------------------------------------------------------------------------------|
    D|--------------------------------------------------------------------------------------------------------------|
    C|-0-0--0~~~~--0------(Right here they---------)----------------------------------------------------------------| (X8)
    G|-0-0--0~~~~--0------(Do this scratchy thing--)----------------------------------------------------------------|
    C|-0-0--0~~~~--0------(high on the fret board--)----------------------------------------------------------------|
 PM.   . .         .

     GTR 1
    F|--------------------------------------------------------------------------------------------------------------|
    A|--------------------------------------------------------------------------------------------------------------|
    D|--------------------------------------------------------------------------------------------------------------|
    C|-0-0--0~~~~-----------(X2)-8-8--8~~~~---------------7-7--7~~~~------------------------------------------------| (X5)
    G|-0-0--0~~~~--8-7-10--------8-8--8~~~~--8-7-5--------7-7--7~~~~-10-8-7-----------------------------------------|
    C|-0-0--0~~~~----------------8-8--8~~~~---------------7-7--7~~~~------------------------------------------------|
 PM.   . .                       . .                      . .     

     GTR 2
    F|--------------------------------------------------------------------------------------------------------------|
    A|--------------------------------------------------------------------------------------------------------------|
    D|-------------7-5-8--------------------7-5-3---------------------8-7-5-----------------------------------------|
    C|-0-0--0~~~~----------(X2)-8-8--8~~~~----------------7-7--7~~~~------------------------------------------------| (X3)  Plays 3X after GTR 1 plays 2X
    G|-0-0--0~~~~---------------8-8--8~~~~----------------7-7--7~~~~------------------------------------------------|
    C|-0-0--0~~~~---------------8-8--8~~~~----------------7-7--7~~~~------------------------------------------------|
 PM.   . .                      . .                       . .

     GTR 1  
    F|--------------------------------------------------------------------------------------------------------------|
    A|--------------------------------------------------------------------------------------------------------------|
    D|--------------------------------------------------------------------------------------------------------------|
    C|---------------------------------(X2)-------------------------------------------------------------------------|
    G|-----7---8---7---10---8---7---8-------------------------------------------------------------------------------|
    C|-0-0---0---0---0----0---0---0---------------------------------------------------------------------------------|
 PM.   . .   .   .   .    .   .   .

     GTR 2
    F|--------------------------------------------------------------------------------------------------------------|
    A|--------------------------------------------------------------------------------------------------------------|
    D|--------------------------------------------------------------------------------------------------------------|
    C|-0~~~~~~~~~~~~~~~~~~~~~~~~~~~~~-------------------------------------------------------------------------------|      This just plays for the
    G|-0~~~~~~~~~~~~~~~~~~~~~~~~~~~~~-------------------------------------------------------------------------------|      1st GTR 1 part above
    C|-0~~~~~~~~~~~~~~~~~~~~~~~~~~~~~-------------------------------------------------------------------------------|

     GTR 2
    D|--------------------------------------------------------------------------------------------------------------|
    A|--------------------------------------------------------------------------------------------------------------|
    F|--------------------------------------------------------------------------------------------------------------|
    C|-0-0--------------------------------(X2)-8---------------------------------7-7--------------------------------| (x1)
    G|-0-0-------------------------------------8~~~~~~~~~------------------------7-7--------------------------------|
    C|-0-0-------------------------------------8~~~~~~~~~------------------------7-7--------------------------------|
 PM.   . .                                                                       . .

     GTR 2
    D|--------------------------------------------------------------------------------------------------------------|
    A|--------------------------------------------------------------------------------------------------------------|
    F|--------------------------------------------------------------------------------------------------------------|
    C|-----------------------------------(X2)-----------------------------------------------------------------------| (x2)
    G|--------------------------------------------------------------------------------------------------------------|
    C|-0-0-0-0-0-0-0-0-0-0-0-0-0-0-0-0--------8-8-8-8-8-8-8-8-8-8-8-8-8-8-8-8---7-7-7-7-7-7-7-7-8-8-8-8--10-10-10-10|
 PM.   . . . . . . . . . . . . . . . .        . . . . . . . . . . . . . . . .   . . . . . . . . . . . .   .  .  .  .
     
        GTR 1 
    F|-----------------|----------------|----------------|----------------|-----------------------------------------|     ---------------------------------|
    A|-----------------|----------------|----------------|----------------|-----------------------------------------|                                      |
    D|-----------------|----------------|----------------|----------------|-----------------------------------------|                                      |
    C|-----------------|----------------|----------------|----------------|-----------------------------------------| (X4)   Sorry for the linning issues  |
    G|-5-7-0-8-7-0-7-0-|-5-7-0-8-7-0-7-0|-5-7-0-8-7-0-7-0|-5-7-0-8-7-0-7-0|-----------------------------------------|        in this part but i will       |
    C|-----------------|----------------|----------------|----------------|-----------------------------------------|        explain it here--:--          |
                                                                                                                                                           |
     GTR 2                                                                                                                   1)Okay the GTR1 part plays 4X |
    F|-----------------------|-----------------------|-----------------------|--------------------------------------|                                      |
    A|-----------------------|-----------------------|-----------------------|--------------------------------------|        2)The GTR 2 part is playing   |
    D|-----------------------|-----------------------|-----------------------|--------------------------------------|          through this entire section |
    C|-000-000--000--000-000-|-888-888--888--888-888-|-777-777--777--777-777-|-555-555--555--555-555----------------| (X2)     aswell as the GTR1, but the |
    G|-000-000--000--000-000-|-888-888--888--888-888-|-777-777--777--777-777-|-555-555--555--555-555----------------|          thing with the GTR 2 part is|
    C|-000-000--000--000-000-|-888-888--888--888-888-|-777-777--777--777-777-|-555-555--555--555-555----------------|          that it is twice as long as |
 PM.   ... ...  ...  ... ...   ... ...  ...  ... ...   ... ...  ...  ... ...   ... ...  ...  ... ...                           the GTR 1 part, so the GTR 2|
                                                                                                                               part only plays 2X          |
 --->  all of these are Triplets just the ones with the double space (--) have a little space in the song                                                  |
                                                                                                                             3)The GTR 3 part starts after |
     GTR 3                                                                                                                     the 2nd time of GTR 1 and   |
    F|-----------------12---------------|-----------------12---------------|----------------------------------------|          the 1st time of GTR 2       |
    A|-------------15------15--14--15---|-------------15------15--14--15---|----------------------------------------|          playing                     |
    D|---------14-----------------------|---------14-----------------------|----------------------------------------|                                      |
    C|-12--15---------------------------|-12--15---------------------------|----------------------------------------| (X2)                                 |
    G|----------------------------------|----------------------------------|----------------------------------------|                                      |
    C|----------------------------------|----------------------------------|----------------------------------------|     ---------------------------------|

     GTR 1,2,& 3 end on open note
    F|--------------------------------------------------------------------------------------------------------------|
    A|--------------------------------------------------------------------------------------------------------------|
    D|--------------------------------------------------------------------------------------------------------------|
    C|-0~~~~~~~-----------------------------------------------------------------------------------------------------|
    G|-0~~~~~~~-----------------------------------------------------------------------------------------------------|
    C|-0~~~~~~~-----------------------------------------------------------------------------------------------------|


     GTR 1
    F|--------------------------------------------------------------------------------------------------------------|
    A|--------------------------------------------------------------------------------------------------------------|
    D|--------------------------------------------------------------------------------------------------------------|
    C|--------------------------------------------------------------------------------------------------------------| (X12)
    G|-7----7----7----7-----8----8----8----8------------------------------------------------------------------------|
    C|---12---12---12---12----12---12---12---12---------------------------------------------------------------------|


    F|--------------------------------------------------------------------------------------------------------------|
    A|--------------------------------------------------------------------------------------------------------------|
    D|--------------------------------------------------------------------------------------------------------------|
    C|-0~~~~--(held for 2X of GTR 1)-0-(ends abruptly)--------------------------------------------------------------|      kicks in after 2X
    G|-0~~~~-------------------------0------------------------------------------------------------------------------|      of the GTR 1 playing
    C|-0~~~~-------------------------0------------------------------------------------------------------------------|      and is held for 2X more
                                                                                                                           After this GTR 1 plays 2X more
     GTR 2                                                                                                                 then the next GTR 2 kicks in 
    F|-------------/(16X)\------------------------------------------------------------------------------------------|      and plays until end of section
    A|------------/-------\-----------------------------------------------------------------------------------------|
    D|////////////---------\\\\\\\\\\\------------------------------------------------------------------------------|
    C|-0-0-0-0-0-0-0-0-0-0-0-0-0-0-0-0------------------------------------------------------------------------------| (X2)
    G|-0-0-0-0-0-0-0-0-0-0-0-0-0-0-0-0------------------------------------------------------------------------------|   
    C|-0-0-0-0-0-0-0-0-0-0-0-0-0-0-0-0------------------------------------------------------------------------------|   ^
 PM.   . . . . . . . . . . . . . . . .                                       ^                                          |
                                                                             | these played for 2X as you can see right here
     GTR 3                                                                   | 
    F|---------------------(same-as-above,-these-are-played-16-times-but-for-1-time)--------------------------------|
    A|--------------------------------------------------------------------------------------------------------------|
    D|--------------------------------------------------------------------------------------------------------------|
    C|-12--12--12--12--12--12--12--12--12--12--12--12--12--12--12--12-----------------------------------------------| (X1) kicks in after
    G|-12--12--12--12--12--12--12--12--12--12--12--12--12--12--12--12-----------------------------------------------|      1 time of GTR 2 playing
    C|-12--12--12--12--12--12--12--12--12--12--12--12--12--12--12--12-----------------------------------------------|
 PM.   .   .   .   .   .   .   .   .   .   .   .   .   .   .   .   .

     GTRs 2 and 3 are palm muted the entire time but when they progress they get louder

     GTR 1
    F|-----------------------------------|--------------------------------------------------------------------------|
    A|-----------------------------------|--------------------------------------------------------------------------|
    D|-----------------------------------|------------------------10--9---------------------------------------------|
    C|-0--0-0-0-0--0--0-0----------------|--0--0-0-0-0--0--0-0------------------------------------------------------| (X4)
    G|-0--0-0-0-0--0--0-0--8/10-8-7-8-7-5|--0--0-0-0-0--0--0-0-------------10--8------------------------------------|
    C|-0--0-0-0-0--0--0-0----------------|--0--0-0-0-0--0--0-0--8--------7------------------------------------------|
 PM.      . . . .     . .                     . . . .     . .

     GTR 2
    F|-----------------------------------|--------------------------------------------------------------------------|
    A|-----------------------------------|--------------------------------------------------------------------------|
    D|-----------------------------------|------------------------10--9---------------------------------------------|
    C|12--0-0-0-0--12-0-0--7/8--7-5-7-5-3|12--0-0-0-0--12--0-0------------------------------------------------------| (X2) kicks in after
    G|12--0-0-0-0--12-0-0----------------|12--0-0-0-0--12--0-0-------------10--8------------------------------------|      2X of GTR 1
    C|12--0-0-0-0--12-0-0----------------|12--0-0-0-0--12--0-0--8--------7------------------------------------------|
 PM.      . . . .     . .                     . . . .      . .

     GTR 1 & 2
    F|--------------------------------------------------------------------------------------------------------------|
    A|--------------------------------------------------------------------------------------------------------------|
    D|--------------------------------------------------------------------------------------------------------------|
    C|-0~~~~--------------------------------------------------------------------------------------------------------|
    G|-0~~~~--------------------------------------------------------------------------------------------------------|
    C|-0~~~~--------------------------------------------------------------------------------------------------------|

                                              -------
                                              | END |
                                              -------
     Sorry if this was really confusing like this was my 1st tab and like this was a big song to tackle so uh yeah.
     But you will get it once you play it.
     The most confusing part is the Guitar 2 and 3 parts and when they fuse together and stuff.


 PS: If you like As I Lay Dying and like Hardcore/Metalcore you will most definitly like Darkest Hour, Himsa, and The Black Dahlia Muder
     they are all freaking beast and are great live bands.  Definitly check them out, they are worth your time.




comments
print report bad tab
5 comments total. Showing first comments.
0 reply
David5643832 wrote on June 27 2006, 01:58 pm

Great tab, love the song. Keep up the good work man.

0 reply
offbeat wrote on May 13 2007, 04:33 pm

Ive been trying to figure out that weird chord at 1:30, but so far I havnt got it.

0 reply
intro wrote on June 5 2007, 07:48 am

great tab!! thx

I want to post or [tab]
guest
You may want to rate the tab now too:
select rating
Please do not post tabs as comments. Select "correction" instead!