Oops, an error
Loading. Please wait.

Repeating Yesterday Tab

version 3
version 3

Interactive

3,376 views 1 this week
9 commentsread comments
1 2 3 4 5
accurate
x 8
add to favorites
launch autoscroll
font size
0
reset
how to read this tab
guitar tuner
Autoscroll
slow
fast
+/-
esc
set tempo
stop
Help us to improve Ultimate-Guitar.com Take our survey!
×
Contributor
ok this is wut i think it is

artist: as i lay dying
song: repeating yesterday
album: shadows are...
tunning: dropped c (cgcfad)

ok here___________________________________________
GTR 1 (CLEAN)
|--------------------------------------------------------------------------|
|-----3-----3-----3-----3-----3-----3-----3-----3-----3-----3-----3-----3--|
|--------------------------------------------------------------------------|
|---0-----0-----0-----0-----0-----0-----0-----0-----0-----0-----0-----0----|
|-0-----0-----0-----0-----0-----0-----3-----3-----3-----3-----3-----3------|
|--------------------------------------------------------------------------|

GTR 2
|--------------------------------------------------------------------------|
|--------------------------------------------------------------------------|
|--------------------------------------------------------------------------|
|--------------------------------------------------------------------------|
|--------------------------------------------------------------------------|
|--------------------------------------------------------------------------|

GTR 1
|------------------------------------|
|----3-----3-----3-----3-----3-----3-|
|------------------------------------|
|--0-----0-----0-----0-----0-----0---|
|1-----1-----1-----1-----1-----1-----|
|------------------------------------|

GTR 2
|------------------------------------|
|------------------------------------|
|------------------------------------|
|------------------------------------|
|------------------------------------|
|------------------------------------|

GTR 1
|--------------------------------------------------------------------------|
|-----3-----3-----3-----3-----3-----3-----3-----3-----3-----3-----3-----3--|
|--------------------------------------------------------------------------|
|---0-----0-----0-----0-----0-----0-----0-----0-----0-----0-----0-----0----|
|-0-----0-----0-----0-----0-----0-----3-----3-----3-----3-----3-----3------|
|--------------------------------------------------------------------------|

GTR 2
|--------------------------------------------------------------------------|
|--------------------------------------------------------------------------|
|--------------------------------------------------------------------------|
|--------------------------------------------------------------------------|
|--------------------------------------------------------------------------|
|--------------------------------------------------------------------------|

GTR 1
|------------------------------------|
|----3-----3-----3-----3-----3-----3-|
|------------------------------------|
|--0-----0-----0-----0-----0-----0---|
|1-----1-----1-----1-----1-----1-----|
|------------------------------------|

GTR 2
|------------------------------------|
|------------------------------------|
|------------------------------------|
|------------------------------------|
|------------------------------------|
|------------------------------------|

GTR 1
|--------------------------------------------------------------------------|
|-----3-----3-----3-----3-----3-----3-----3-----3-----3-----3-----3-----3--|
|--------------------------------------------------------------------------|
|---0-----0-----0-----0-----0-----0-----0-----0-----0-----0-----0-----0----|
|-0-----0-----0-----0-----0-----0-----3-----3-----3-----3-----3-----3------|
|--------------------------------------------------------------------------|

GTR 2
|-----------------------------------------------|
|-----------------------------------------------|
|-----12------12------12------12------12-----12-|
|---0-------0-------0-------0-------0------0----| (GTR 2 REPEATS THIS OVER N
|10------10------10------10------10------0------|   OVER WHILE GTR ONE PLAYS)
|-----------------------------------------------|

GTR 1
|------------------------------------|
|----3-----3-----3-----3-----3-----3-|
|------------------------------------|
|--0-----0-----0-----0-----0-----0---|
|1-----1-----1-----1-----1-----1-----|
|------------------------------------|

 =========GTR 2 REPEATS

GTR 1
|--------------------------------------------------------------------------|
|-----3-----3-----3-----3-----3-----3-----3-----3-----3-----3-----3-----3--|
|--------------------------------------------------------------------------|
|---0-----0-----0-----0-----0-----0-----0-----0-----0-----0-----0-----0----|
|-0-----0-----0-----0-----0-----0-----3-----3-----3-----3-----3-----3------|
|--------------------------------------------------------------------------|

 =========GTR 2 REPEATS

GTR 1
|------------------------------------|
|----3-----3-----3-----3-----3-----3-|
|------------------------------------|
|--0-----0-----0-----0-----0-----0---|
|1-----1-----1-----1-----1-----1-----|
|------------------------------------|

 =========GTR 2 REPEATS

GTR 1
|--------------------------------------------------------------------------|
|-----3-----3-----3-----3-----3-----3-----3-----3-----3-----3-----3-----3--|
|--------------------------------------------------------------------------|
|---0-----0-----0-----0-----0-----0-----0-----0-----0-----0-----0-----0----|
|-0-----0-----0-----0-----0-----0-----3-----3-----3-----3-----3-----3------|
|--------------------------------------------------------------------------|

GTR 1
|------------------------------------|
|----3-----3-----3-----3-----3-----3-|
|------------------------------------|
|--0-----0-----0-----0-----0-----0---|
|1-----1-----1-----1-----1-----1-----|
|------------------------------------|

 =========GTR 2 REPEATS

GTR 1
|--------------------------------------------------------------------------|
|-----3-----3-----3-----3-----3-----3-----3-----3-----3-----3-----3-----3--|
|--------------------------------------------------------------------------|
|---0-----0-----0-----0-----0-----0-----0-----0-----0-----0-----0-----0----|
|-0-----0-----0-----0-----0-----0-----3-----3-----3-----3-----3-----3------|
|--------------------------------------------------------------------------|

 =========GTR 2 REPEATS

GTR 1
|------------------------------------|
|----3-----3-----3-----3-----3-----3-|
|------------------------------------|
|--0-----0-----0-----0-----0-----0---|
|1-----1-----1-----1-----1-----1-----|
|------------------------------------|

 ==========GTR 2 REPEATS
THEN__________________________________________________________

GTR 1 & 2
|-------------------------------------------------------------------|
|-------------------------------------------------------------------|
|-1212121212121212--10101010--9999--1010101010101010--9999--5555----|
|--X-X-X-X-X-X-X-X---X-X-X-X--XXXX---X-X-X-X-X-X-X-X--XXXX--XXXX----|
|-1010101010101010---8-8-8-8--7777---8-8-8-8-8-8-8-8--7777--3333----|
|-------------------------------------------------------------------|

GTR 1 & 2
|-------------------------------------------------------------------|
|-------------------------------------------------------------------|
|-1212121212121212--10101010--9999--1010101010101010--9999--5555----|
|--X-X-X-X-X-X-X-X---X-X-X-X--XXXX---X-X-X-X-X-X-X-X--XXXX--XXXX----|
|-1010101010101010---8-8-8-8--7777---8-8-8-8-8-8-8-8--7777--3333----|
|-------------------------------------------------------------------|

GTR 1 & 2
|-------------------------------------------------------------------|
|-------------------------------------------------------------------|
|-1212121212121212--10101010--9999--1010101010101010--9999--5555----|
|--X-X-X-X-X-X-X-X---X-X-X-X--XXXX---X-X-X-X-X-X-X-X--XXXX--XXXX----|
|-1010101010101010---8-8-8-8--7777---8-8-8-8-8-8-8-8--7777--3333----|
|-------------------------------------------------------------------|
_______________________________________________________
GTR 1 & 2
|---------------------------------------------------------------------------|
|---------------------------------------------------------------------------|
|--1515151515151515--14141414--10101010--1414141414141414--1212121212121212-|
|---X-X-X-X-X-X-X-X---X-X-X-X---X-X-X-X---X-X-X-X-X-X-X-X---X-X-X-X-X-X-X-X-|
|--1313131313131313--12121212---8-8-8-8--1212121212121212--1010101010101010-|
|---------------------------------------------------------------------------|

GTR 1 & 2
|---------------------------------------------------------------------------|
|---------------------------------------------------------------------------|
|--1515151515151515--14141414--10101010--1414141414141414--1212121212121212-|
|---X-X-X-X-X-X-X-X---X-X-X-X---X-X-X-X---X-X-X-X-X-X-X-X---X-X-X-X-X-X-X-X-|
|--1313131313131313--12121212---8-8-8-8--1212121212121212--1010101010101010-|
|---------------------------------------------------------------------------|

GTR 1 & 2
|---------------------------------------------------------------------------|
|---------------------------------------------------------------------------|
|--1515151515151515--14141414--10101010--1414141414141414--1212121212121212-|
|---X-X-X-X-X-X-X-X---X-X-X-X---X-X-X-X---X-X-X-X-X-X-X-X---X-X-X-X-X-X-X-X-|
|--1313131313131313--12121212---8-8-8-8--1212121212121212--1010101010101010-|
|---------------------------------------------------------------------------|
_________________________________________________________________________
GTR 1 & 2
|-------------------------------------------------------------------|
|-------------------------------------------------------------------|
|-1212121212121212--10101010--9999--1010101010101010--9999--5555----|
|--X-X-X-X-X-X-X-X---X-X-X-X--XXXX---X-X-X-X-X-X-X-X--XXXX--XXXX----|
|-1010101010101010---8-8-8-8--7777---8-8-8-8-8-8-8-8--7777--3333----|
|-------------------------------------------------------------------|

GTR 1 & 2
|-------------------------------------------------------------------|
|-------------------------------------------------------------------|
|-1212121212121212--10101010--9999--1010101010101010--9999--5555----|
|--X-X-X-X-X-X-X-X---X-X-X-X--XXXX---X-X-X-X-X-X-X-X--XXXX--XXXX----|
|-1010101010101010---8-8-8-8--7777---8-8-8-8-8-8-8-8--7777--3333----|
|-------------------------------------------------------------------|

GTR 1 & 2
|-------------------------------------------------------------------|
|-------------------------------------------------------------------|
|-1212121212121212--10101010--9999--1010101010101010--9999--5555----|
|--X-X-X-X-X-X-X-X---X-X-X-X--XXXX---X-X-X-X-X-X-X-X--XXXX--XXXX----|
|-1010101010101010---8-8-8-8--7777---8-8-8-8-8-8-8-8--7777--3333----|
|-------------------------------------------------------------------|
_______________________________________________________________________
GTR 1 & 2
|---------------------------------------------------------------------------|
|---------------------------------------------------------------------------|
|--1515151515151515--14141414--10101010--1414141414141414--1212121212121212-|
|---X-X-X-X-X-X-X-X---X-X-X-X---X-X-X-X---X-X-X-X-X-X-X-X---X-X-X-X-X-X-X-X-|
|--1313131313131313--12121212---8-8-8-8--1212121212121212--1010101010101010-|
|---------------------------------------------------------------------------|

GTR 1 & 2
|---------------------------------------------------------------------------|
|---------------------------------------------------------------------------|
|--1515151515151515--14141414--10101010--1414141414141414--1212121212121212-|
|---X-X-X-X-X-X-X-X---X-X-X-X---X-X-X-X---X-X-X-X-X-X-X-X---X-X-X-X-X-X-X-X-|
|--1313131313131313--12121212---8-8-8-8--1212121212121212--1010101010101010-|
|---------------------------------------------------------------------------|

GTR 1 & 2
|---------------------------------------------------------------------------|
|---------------------------------------------------------------------------|
|--1515151515151515--14141414--10101010--1414141414141414--1212121212121212-|
|---X-X-X-X-X-X-X-X---X-X-X-X---X-X-X-X---X-X-X-X-X-X-X-X---X-X-X-X-X-X-X-X-|
|--1313131313131313--12121212---8-8-8-8--1212121212121212--1010101010101010-|
|---------------------------------------------------------------------------|
_______________________________________________________________________
GTR 1 & 2
|---------------------------------|
|---------------------------------|
|----------------------------11---|
|--------7-7-7-7---------7h8----8-|
|--0-0-0-5-5-5-5-0-0-0-0----------|
|--0-0-0---------0-0-0-0----------|
   . . .         . . . .

GTR 1 & 2
|---------------------------------|
|---------------------------------|
|----------------------------11---|
|--------7-7-7-7---------7h8----8-|
|--0-0-0-5-5-5-5-0-0-0-0----------|
|--0-0-0---------0-0-0-0----------|
   . . .         . . . .

GTR 1 & 2
|---------------------------------|
|---------------------------------|
|----------------------------11---|
|--------7-7-7-7---------7h8----8-|
|--0-0-0-5-5-5-5-0-0-0-0----------|
|--0-0-0---------0-0-0-0----------|
   . . .         . . . .

GTR 1 & 2
|---------------------------------|
|---------------------------------|
|----------------------------11---|
|--------7-7-7-7---------7h8----8-|
|--0-0-0-5-5-5-5-0-0-0-0----------|
|--0-0-0---------0-0-0-0----------|
   . . .         . . . .

GTR 1 & 2
|---------------------------------|
|---------------------------------|
|----------------------------11---|
|--------7-7-7-7---------7h8----8-|
|--0-0-0-5-5-5-5-0-0-0-0----------|
|--0-0-0---------0-0-0-0----------|
   . . .         . . . .
_________________________________________________________________
GTR 1 & 2
|---------------------------------------------------------------------------|
|--------------------------------------------------17-17-17-17-17-17-17-17--|
|-18-18-18-18-18-18-18-18--20-20-20-20-20-20-20-20--------------------------|
|---------------------------------------------------------------------------|
|---------------------------------------------------------------------------|
|---------------------------------------------------------------------------|
______________________________________________________________________-
GTR 1 & 2
|---------------------------------|
|---------------------------------|
|----------------------------11---|
|--------7-7-7-7---------7h8----8-|
|--0-0-0-5-5-5-5-0-0-0-0----------|
|--0-0-0---------0-0-0-0----------|
   . . .         . . . .

GTR 1 & 2
|---------------------------------|
|---------------------------------|
|----------------------------11---|
|--------7-7-7-7---------7h8----8-|
|--0-0-0-5-5-5-5-0-0-0-0----------|
|--0-0-0---------0-0-0-0----------|
   . . .         . . . .

GTR 1 & 2
|---------------------------------|
|---------------------------------|
|----------------------------11---|
|--------7-7-7-7---------7h8----8-|
|--0-0-0-5-5-5-5-0-0-0-0----------|
|--0-0-0---------0-0-0-0----------|
   . . .         . . . .

GTR 1 & 2
|---------------------------------|
|---------------------------------|
|----------------------------11---|
|--------7-7-7-7---------7h8----8-|
|--0-0-0-5-5-5-5-0-0-0-0----------|
|--0-0-0---------0-0-0-0----------|
   . . .         . . . .

GTR 1 & 2
|---------------------------------|
|---------------------------------|
|----------------------------11---|
|--------7-7-7-7---------7h8----8-|
|--0-0-0-5-5-5-5-0-0-0-0----------|
|--0-0-0---------0-0-0-0----------|
   . . .         . . . .
_________________________________________________________________
GTR 1 & 2
|-------------------------------------------------------------------|
|-------------------------------------------------------------------|
|-1212121212121212--10101010--9999--1010101010101010--9999--5555----|
|--X-X-X-X-X-X-X-X---X-X-X-X--XXXX---X-X-X-X-X-X-X-X--XXXX--XXXX----|
|-1010101010101010---8-8-8-8--7777---8-8-8-8-8-8-8-8--7777--3333----|
|-------------------------------------------------------------------|

GTR 1 & 2
|-------------------------------------------------------------------|
|-------------------------------------------------------------------|
|-1212121212121212--10101010--9999--1010101010101010--9999--5555----|
|--X-X-X-X-X-X-X-X---X-X-X-X--XXXX---X-X-X-X-X-X-X-X--XXXX--XXXX----|
|-1010101010101010---8-8-8-8--7777---8-8-8-8-8-8-8-8--7777--3333----|
|-------------------------------------------------------------------|

GTR 1 & 2
|-------------------------------------------------------------------|
|-------------------------------------------------------------------|
|-1212121212121212--10101010--9999--1010101010101010--9999--5555----|
|--X-X-X-X-X-X-X-X---X-X-X-X--XXXX---X-X-X-X-X-X-X-X--XXXX--XXXX----|
|-1010101010101010---8-8-8-8--7777---8-8-8-8-8-8-8-8--7777--3333----|
|-------------------------------------------------------------------|
_______________________________________________________
GTR 1 & 2
|---------------------------------------------------------------------------|
|---------------------------------------------------------------------------|
|--1515151515151515--14141414--10101010--1414141414141414--1212121212121212-|
|---X-X-X-X-X-X-X-X---X-X-X-X---X-X-X-X---X-X-X-X-X-X-X-X---X-X-X-X-X-X-X-X-|
|--1313131313131313--12121212---8-8-8-8--1212121212121212--1010101010101010-|
|---------------------------------------------------------------------------|

GTR 1 & 2
|---------------------------------------------------------------------------|
|---------------------------------------------------------------------------|
|--1515151515151515--14141414--10101010--1414141414141414--1212121212121212-|
|---X-X-X-X-X-X-X-X---X-X-X-X---X-X-X-X---X-X-X-X-X-X-X-X---X-X-X-X-X-X-X-X-|
|--1313131313131313--12121212---8-8-8-8--1212121212121212--1010101010101010-|
|---------------------------------------------------------------------------|

GTR 1 & 2
|---------------------------------------------------------------------------|
|---------------------------------------------------------------------------|
|--1515151515151515--14141414--10101010--1414141414141414--1212121212121212-|
|---X-X-X-X-X-X-X-X---X-X-X-X---X-X-X-X---X-X-X-X-X-X-X-X---X-X-X-X-X-X-X-X-|
|--1313131313131313--12121212---8-8-8-8--1212121212121212--1010101010101010-|
|---------------------------------------------------------------------------|
_________________________________________________________________________
GTR 1 & 2
|-------------------------------------------------------------------|
|-------------------------------------------------------------------|
|-1212121212121212--10101010--9999--1010101010101010--9999--5555----|
|--X-X-X-X-X-X-X-X---X-X-X-X--XXXX---X-X-X-X-X-X-X-X--XXXX--XXXX----|
|-1010101010101010---8-8-8-8--7777---8-8-8-8-8-8-8-8--7777--3333----|
|-------------------------------------------------------------------|

GTR 1 & 2
|-------------------------------------------------------------------|
|-------------------------------------------------------------------|
|-1212121212121212--10101010--9999--1010101010101010--9999--5555----|
|--X-X-X-X-X-X-X-X---X-X-X-X--XXXX---X-X-X-X-X-X-X-X--XXXX--XXXX----|
|-1010101010101010---8-8-8-8--7777---8-8-8-8-8-8-8-8--7777--3333----|
|-------------------------------------------------------------------|

GTR 1 & 2
|-------------------------------------------------------------------|
|-------------------------------------------------------------------|
|-1212121212121212--10101010--9999--1010101010101010--9999--5555----|
|--X-X-X-X-X-X-X-X---X-X-X-X--XXXX---X-X-X-X-X-X-X-X--XXXX--XXXX----|
|-1010101010101010---8-8-8-8--7777---8-8-8-8-8-8-8-8--7777--3333----|
|-------------------------------------------------------------------|
_______________________________________________________________________
GTR 1 & 2
|---------------------------------------------------------------------------|
|---------------------------------------------------------------------------|
|--1515151515151515--14141414--10101010--1414141414141414--1212121212121212-|
|---X-X-X-X-X-X-X-X---X-X-X-X---X-X-X-X---X-X-X-X-X-X-X-X---X-X-X-X-X-X-X-X-|
|--1313131313131313--12121212---8-8-8-8--1212121212121212--1010101010101010-|
|---------------------------------------------------------------------------|

GTR 1 & 2
|---------------------------------------------------------------------------|
|---------------------------------------------------------------------------|
|--1515151515151515--14141414--10101010--1414141414141414--1212121212121212-|
|---X-X-X-X-X-X-X-X---X-X-X-X---X-X-X-X---X-X-X-X-X-X-X-X---X-X-X-X-X-X-X-X-|
|--1313131313131313--12121212---8-8-8-8--1212121212121212--1010101010101010-|
|---------------------------------------------------------------------------|

GTR 1 & 2
|---------------------------------------------------------------------------|
|---------------------------------------------------------------------------|
|--1515151515151515--14141414--10101010--1414141414141414--1212121212121212-|
|---X-X-X-X-X-X-X-X---X-X-X-X---X-X-X-X---X-X-X-X-X-X-X-X---X-X-X-X-X-X-X-X-|
|--1313131313131313--12121212---8-8-8-8--1212121212121212--1010101010101010-|
|---------------------------------------------------------------------------|
_____________________________________________________________________________
GTR 1 & 2
|-----------------------------|
|-----------------------------|
|-----------------------------|
|--0~-------------------------| (FADE WHILE A PIANO PLAYS WUT THE INTRO WAS)
|--0~-------------------------|
|--0~-------------------------|
comments
print report bad tab
9 comments total. Showing first comments.
0 reply
universal_man 366 wrote on July 9 2006, 02:55 am

i think this is good...!!

0 reply
Hangar_18 1,036 wrote on November 23 2006, 01:52 am

wrong

0 reply
Rock_On891 620 wrote on December 16 2006, 11:02 pm

great tab

I want to post or [tab]
guest
You may want to rate the tab now too:
select rating
Please do not post tabs as comments. Select "correction" instead!