Oops, an error
Loading. Please wait.

Repeating Yesterday Tab

version 4
version 4

Interactive

1,999 views 1 this week
1 commentread comment
1 2 3 4 5
accurate
x 3
add to favorites
launch autoscroll
font size
0
reset
how to read this tab
guitar tuner
Tab Pro tools
  • play this tab
  • loop segment
  • change instrument
  • show fretboard
  • metronome
Autoscroll
slow
fast
+/-
esc
set tempo
stop
Difficulty
intermediate
Intro
|-----------------------------------|
|-----------------------------------|
|-----------------------------------| 6x
|---0--------0------0------0--------|
|--0-(12x)--0-(6x)-0-(3x)-0-(3x)----|
|-0-------10------8------7----------|

Verse 1 (Pt 1)
|-----------------------------------------------------------------|
|-----------------------------------------------------------------|
|-12-----10-----9------10-----9------5----------------------------| 2x
|-x-(8x)-x-(4x)-x-(4x)-x-(8x)-x-(4x)-x-(4x)-----------------------|
|-10-----8------7------8------7------3----------------------------|
|-----------------------------------------------------------------|

Verse 1 (Pt 2)
|-----------------------------------------------------------------|
|-----------------------------------------------------------------|
|-15-----14-----10-----14-----12----------------------------------| 2x
|-x-(8x)-x-(4x)-x-(4x)-x-(8x)-x-(8x)------------------------------|
|-13-----12-----8------12-----10----------------------------------|
|-----------------------------------------------------------------|

Verse 1 (Pt 1)  2x
Verse 1 (Pt 2)  2x

Verse 2 (Pt 1)
|-----------------------------------------------------------------|
|-----------------------------------------------------------------|
|----------10101010-----------10/121212---------------------------| 4x
|-0-0-0-0--x-x-x-x---0-0-0-0--x-/x-x-x----------------------------|
|-0-0-0-0--8-8-8-8---0-0-0-0--8-/101010---------------------------|
|-0-0-0-0------------0-0-0-0--------------------------------------|

Verse 2 (Pt 2)
|-----------------------------------------------------------------|
|-151515151515151515151515151515151717171717b17b17b17b17b17b17b---|
|-----------------------------------------------------------------|
|-----------------------------------------------------------------|
|-----------------------------------------------------------------|
|-----------------------------------------------------------------|

Verse 2 (Pt 1) 4x
Verse 1 (Pt 1) 2x
Verse 1 (Pt 2) 2x
Verse 1 (Pt 1) 2x
Verse 1 (Pt 2) 2x



comments
We did not receive enough feedback on this tab! Please rate:
print report bad tab
1 2 3 4 5
1 comment total.
0 reply
royturner23 wrote on October 2 2009, 10:58 am

wrong way of playing the intro.

I want to post or [tab]
guest
You may want to rate the tab now too:
select rating
Please do not post tabs as comments. Select "correction" instead!