Oops, an error
Loading. Please wait.

Repeating Yesterday Tab

version 7
version 7

Interactive

1,374 views 6 this week
no commentswrite comment
1 2 3 4 5
excellent!
x 7
add to favorites
launch autoscroll
font size
0
reset
how to read this tab
guitar tuner
Tab Pro tools
  • play this tab
  • loop segment
  • change instrument
  • show fretboard
  • metronome
Autoscroll
slow
fast
+/-
esc
set tempo
stop
Contributor
Difficulty
Tuning
intermediate
C G C F A D
As I Lay Dying - Repeating Yesterday

Tab by AsILayDying504

Tuning: C G C F A D (Drop C)

  .  Palm Mute
  /  Slide Up
  ~  Hold Note


Song begins with:

D--------|
A--------|
F--------| This is the note that is held at the end of the song "Reflection"
C--------|
G---8~---|
C---0~---|


Intro 

Guitar 1 (x5)

D----------------------------------------|
A-----3------3------3------3----------3--|
F----------------------------------------  x2
C---0------0------0------0-------0-------|
G----------------------------------------|
C-0------0------0------0------0-----0----|

D----------------------------------------|
A-----3------3------3------3----------3--|
F----------------------------------------|
C---0------0------0------0------0--------|
G-3------3------3------3------3-----3----|
C----------------------------------------|

D----------------------------------------|
A-----3------3----3-------3------3----3--|
F----------------------------------------|
C---0------0------------0------0---------|
G-1------1-----1------0------0-----0-----|
C----------------------------------------|

After Guitar 1 plays that twice...
Guitar 2 (x6)

D----------------------------------------|
A-------6----------------6-------6--6----|
F-----7----------------7--------7----7---|
C---7----------------7--------7-------7--|
G-5----------------5--------5------------|
C----------------------------------------|


Chorus (x2)
Both Guitars

D----------------------------------------------  \
A----------------------------------------------  /
F-12-12-12-12-12-12-12-12-10-10-10-10--9-9-9-9-  \
C--x--x--x--x--x--x--x--x--x--x--x--x--x-x-x-x-  /
G-10-10-10-10-10-10-10-10--8--8--8--8--7-7-7-7-  \
C----------------------------------------------   \
                                                   --- x2
D----------------------------------------------   /
A----------------------------------------------  / 
F-10-10-10-10-10-10-10-10--9-9-9-9--5-5-5-5----  \
C--x--x--x--x--x--x--x--x--x-x-x-x--x-x-x-x----  /  
G--8--8--8--8--8--8--8--8--7-7-7-7--3-3-3-3----  \
C----------------------------------------------  /

D-------------------------------------------------  \
A-------------------------------------------------  /
F-15-15-15-15-15-15-15-15-14-14-14-14-10-10-10-10-  \
C--x--x--x--x--x--x--x--x--x--x--x--x--x--x--x--x-  /
G-13-13-13-13-13-13-13-13-12-12-12-12--8--8--8--8-  \
C-------------------------------------------------   \
                                                      --- x2
D-------------------------------------------------   /
A-------------------------------------------------  /
F-12-12-12-12-12-12-12-12-12-12-12-12-12-12-12-12-  \
C--x--x--x--x--x--x--x--x--x--x--x--x--x--x--x--x-  /
G-12-12-12-12-12-12-12-12-10-10-10-10-10-10-10-10-  \
C-------------------------------------------------  /

Verse/Breakdown
Both Guitars

D--------------------------------------|
A--------------------------------------|
F---------10-10-10-10-------------10---  x4
C----------x--x--x--x---------7h8----8-|
G-0-0-0-0--8--8--8--8-0-0-0-0----------|
C-0-0-0-0-------------0-0-0-0----------|
  . . . .             . . . .

Guitar 1

D---------------------------------------------|
A---------------------------------------------|
F---------10-10-10-10-10/12-12-12-10-10-10-10-|
C----------x--x--x--x--x/-x--x--x--x--x--x--x-|
G-0-0-0-0--8--8--8--8--8/10-10-10--8--8--8--8-|
C-0-0-0-0-------------------------------------|

D------------------------------------------------------------------|
A------------------------------------------------------------------|
F---------10/12-12-12---------10/12-12-12--12/12-12-12-10-10-10-10-  x2
C----------x/-x--x--x----------x/-x--x--x---x/-x--x--x--x--x--x--x-|
G-0-0-0-0--8/10-10-10-0-0-0-0--8/10-10-10---8/10-10-10--8--8--8--8-|
C-0-0-0-0-------------0-0-0-0--------------------------------------|

Guitar 2 (Tremolo Picking)

D-----------------------------------------------------|
A-15----------------------------17------18------------|
F-----------------------------------------------------|
C-----------------------------------------------------  Listen Carefully
G-----------------------------------------------------|
C-----------------------------------------------------|

Both Guitars

D-----------------------------------------|
A-----------------------------------------|
F---------10-10-10-10---------10/12-12-12-  x3
C----------x--x--x--x----------x/-x--x--x-|
G-0-0-0-0--8--8--8--8-0-0-0-0--8/10-10-10-|
C-0-0-0-0-------------0-0-0-0-------------|
  . . . .             . . . .

D-------------------------------------|
A-------------------------------------|
F---------10-10-10-10-9-9-9-9-9-9-9-9-|
C----------x--x--x--x-x-x-x-x-x-x-x-x-|
G-0-0-0-0--8--8--8--8-7-7-7-7-7-7-7-7-|
C-0-0-0-0-----------------------------|
  . . . .

 Chorus (x2)
Both Guitars

D----------------------------------------------  \
A----------------------------------------------  /
F-12-12-12-12-12-12-12-12-10-10-10-10--9-9-9-9-  \
C--x--x--x--x--x--x--x--x--x--x--x--x--x-x-x-x-  /
G-10-10-10-10-10-10-10-10--8--8--8--8--7-7-7-7-  \
C----------------------------------------------   \
                                                   --- x2
D----------------------------------------------   /
A----------------------------------------------  / 
F-10-10-10-10-10-10-10-10--9-9-9-9--5-5-5-5----  \
C--x--x--x--x--x--x--x--x--x-x-x-x--x-x-x-x----  /  
G--8--8--8--8--8--8--8--8--7-7-7-7--3-3-3-3----  \
C----------------------------------------------  /

D-------------------------------------------------  \
A-------------------------------------------------  /
F-15-15-15-15-15-15-15-15-14-14-14-14-10-10-10-10-  \
C--x--x--x--x--x--x--x--x--x--x--x--x--x--x--x--x-  /
G-13-13-13-13-13-13-13-13-12-12-12-12--8--8--8--8-  \
C-------------------------------------------------   \
                                                      --- x2
D-------------------------------------------------   /
A-------------------------------------------------  /
F-12-12-12-12-12-12-12-12-12-12-12-12-12-12-12-12-  \
C--x--x--x--x--x--x--x--x--x--x--x--x--x--x--x--x-  /
G-12-12-12-12-12-12-12-12-10-10-10-10-10-10-10-10-  \
C-------------------------------------------------  /

D--------|
A--------|
F--------|
C---0~---|
G---0~---|
C---0~---|

Ends with piano playing the Intro


If you used this tab, PLEASE rate it.
Thanks.
comments
print report bad tab
I want to post or [tab]
guest
You may want to rate the tab now too:
select rating
Please do not post tabs as comments. Select "correction" instead!