Oops, an error
Loading. Please wait.

Separation Tab

version 2
version 2

Whole song

Interactive

6,028 views 1 this week
4 commentsread comments
1 2 3 4 5
accurate
x 3
add to favorites
launch autoscroll
font size
0
reset
how to read this tab
guitar tuner
Tab Pro tools
  • play this tab
  • loop segment
  • change instrument
  • show fretboard
  • metronome
×
Best way to learn
"Separation"
Autoscroll
slow
fast
+/-
esc
set tempo
stop
Contributor
Tuning
C G C F A D
-----------------------------------------------------------------------
                     Separation - As I Lay Dying
-----------------------------------------------------------------------
Tabbed by: Pete_KC
Email: pete8---@hotmail.com

Tuning: Drop C (CGCFAD)

*Update* 31/08/2007 (Thanx to KevP714)
  
  Guitar 1 (00:00)
D|-----------------------------------------------------|
A|-----------------------------------------------------|
F|-----------------------------------------------------|
C|---------2--2h3---------2--2h3---2-------------------|
G|------5--------------5--------------3--0-------------|
C|---0--------------0----------------------------------|
 |
 |Guitar 2
D|-----------------------------------------------------|
A|-----------------------------------------------------|
F|-----------------------------------------------------|
C|-----------------------------------------------------|
G|-----------------------------------------------------|
C|-----------------------------------------------------|

  Guitar 1
D|-----------------------------------------------------|
A|-----------------------------------------------------|
F|-----------------------------------------------------|
C|---------2--2h3---------2--2h3---2-------------------|
G|------5--------------5--------------3--0-------------|
C|---5--------------5----------------------------------|
 |
 |Guitar 2
D|-----------------------------------------------------|
A|-----------------------------------------------------|
F|-----------------------------------------------------|
C|-----------------------------------------------------|
G|-----------------------------------------------------|
C|-----------------------------------------------------|

  Guitar 1
D|-----------------------------------------------------|
A|-----------------------------------------------------|
F|-----------------------------------------------------|
C|---------2--2h3---------2--2h3---2-------------------|
G|------5--------------5--------------3--0-------------|
C|---0--------------0----------------------------------|
 |
 |Guitar 2
D|-----------------------------------------------------|
A|-----------------------------------------------------|
F|-----------------------------------------------------|
C|-----------------------------------------------------|
G|-----------------------------------------------------|
C|-----------------------------------------------------|

  Guitar 1 (Clean)
D|-----------------------------------------------------|
A|------------------------------3----------------------|
F|---------------------------2-----2-------------------|
C|---------2--2h3---------3-----------2--3-------------|
G|------5-----------1--5-------------------------------|
C|---5-------------------------------------------------|
 |
 |Guitar 2 (Dist.)
D|-----------------------------------------------------|
A|------------------------------3----------------------|
F|---------------------------------2-------------------|
C|------------------------------------2--3-------------|
G|-----------------------------------------------------|
C|-----------------------------------------------------|

  Guitar 1 (Clean)(00:29)
D|-----------------------------------------------------|
A|-----------------------------------------------------|
F|-----------------------------------------------------|
C|---------2--2h3---------2--2h3---2-------------------|
G|------5--------------5--------------3--0-------------|
C|---0--------------0----------------------------------|
 |
 |Guitar 2 (Dist.)
D|-----------------------------------------------------|
A|-----------------------------------------------------|
F|-----------------------------------------------------|
C|---0--------------0----------------------------------|
G|---0--------------0----------------------------------|
C|---0--------------0----------------------------------|

  Guitar 1 (Clean)
D|-------------------------------5---------------------|
A|----------------------------------5-----6------------|
F|---------------------9--10---------------------------|
C|---------2--2h3--------------------------------------|
G|------5----------------------------------------------|
C|---5--------------8---------5--------7---------------|
 |
 |Guitar 2 (Dist.)
D|-----------------------------------------------------|
A|-----------------------------------------------------|
F|-----------------------------------------------------|
C|---5--------------8---------5--------7---------------|
G|---5--------------8---------5--------7---------------|
C|---5--------------8---------5--------7---------------|

  Guitar 1 (Dist.)(00:40)
D|-----------------------------------------------------|
A|-----------------------------------------------------|
F|---------5--5/7---------5--5/7---5-------------------|
C|------7--------------7--------------7----------------|
G|---------------------------------------8-------------|
C|---0--------------0----------------------------------|
 |
 |Guitar 2 (Dist.)
D|-----------------------------------------------------|
A|---------5--5/6---------5--5/6---5-------------------|
F|------------------------------------5----------------|
C|------7--------------7-----------------7-------------|
G|-----------------------------------------------------|
C|---0--------------0----------------------------------|

  Guitar 1
D|-----------------------------------------------------|
A|-----------------------------------------------------|
F|---------5--5/7---------7--7/10---9--7---------------|
C|------7--------------7------------------7------------|
G|-----------------------------------------------------|
C|---5--------------8----------------------------------|
 |
 |Guitar 2
D|-----------------------------------------------------|
A|---------5--5/6---------6--6/10---8--5---------------|
F|---------------------7------------------5------------|
C|------7----------------------------------------------|
G|-----------------------------------------------------|
C|---5--------------8----------------------------------|

  Guitar 1 (00:51)
D|-----------------------------------------------------|
A|-----------------------------------------------------|
F|---------9--9h10---------9--9h10---9--7--------------|
C|------7---------------7------------------7-----------|
G|-----------------------------------------------------|
C|---0---------------0---------------------------------|
 |
 |Guitar 2
D|-----------------------------------------------------|
A|---------8--8h10---------8--8h10---8-----------------|
F|-------------------------------------9---------------|
C|------7---------------7-----------------10-----------|
G|-----------------------------------------------------|
C|---0---------------0---------------------------------|

  Guitar 1
D|-----------------------------------------------------|
A|-----------------------------------------------------|
F|---------9--9h10------5/7-----10\9-----7-------------|
C|------7-----------------------------------0----------|
G|-------------------0-------0--------0-----0----------|
C|---5--------------------------------------0----------|
 |
 |Guitar 2
D|-----------------------------------------------------|
A|---------8--8h10------5/6-----10\8-----6-------------|
F|-----------------------------------------------------|
C|------7-----------------------------------0----------|
G|-------------------0-------0--------0-----0----------|
C|---5--------------------------------------0----------|

| /  slide up
| \  slide down
| h  hammer-on
| p  pull-off
| ~  vibrato
| +  harmonic
| x  Mute note
=======================================================================
comments
We did not receive enough feedback on this tab! Please rate:
print report bad tab
1 2 3 4 5
4 comments total. Showing first comments.
0 reply
xjeffislegendx wrote on August 29 2007, 01:48 pm

mostly right

sounds al ittle weird though

0 reply
KevP714 wrote on August 30 2007, 11:37 pm

pretty, good... but im pretty sure this part goes like this...

D|-----------------------------------------------------|
A|-----------------------------------------------------|
F|-----------------------------------------------------|
C|---------2--2h3---------2--2h3---2-------------------|
G|------5--------------5--------------3--0-------------|
C|---0--------------0----------------------------------|

i havent checked tho.. but the 3 sounds right...

0 reply
goten18 wrote on September 1 2007, 01:59 pm

sounds good but the twang is off
if you listen for the very first couple of notes
when i play the way you wrote you get a higher buzz/twang
not in the song though so i fixed it by changing the twos and threes to sevens and eights

so it should look like this
D|-----------------------------------------------------|
A|-----------------------------------------------------|
F|-----------------------------------------------------|
C|-----------------------------------------------------|
G|------5--7--7h8------5--7--7h8---7--3--0-------------|
C|---0--------------0----------------------------------|

its a little deeper feeling so its sounds nicer and it easier

I want to post or [tab]
guest
You may want to rate the tab now too:
select rating
Please do not post tabs as comments. Select "correction" instead!