Oops, an error
Loading. Please wait.

Seperation Tab

version 1
version 1

Whole song

Interactive

10,906 views 9 this week
2 commentsread comments
1 2 3 4 5
excellent!
x 6
add to favorites
launch autoscroll
font size
0
reset
how to read this tab
guitar tuner
Autoscroll
slow
fast
+/-
esc
set tempo
stop
Help us to improve Ultimate-Guitar.com Take our survey!
×
Author
Difficulty
Tuning
novice
C G C F A D
The song is in Drop C tuning..with distortion..

amp distortion is good but not the best so i'd use a pedal or something else for this

Guitar 1: (0:06)
D|------------------------------------|
A|------------------------------------|
F|-----9-9h10~--------9-9h10~--9------|
C|---7--------------7------------10-7-|
G|------------------------------------|
C|-0--------------0-------------------|

Guitar 2:
D|------------------------------------|
A|------------------------------------|
F|------------------------------------|
C|------------------------------------|
G|------------------------------------|
C|------------------------------------|

Guitar 1: (0:12)
D|------------------------------------|
A|------------------------------------|
F|-----9-9h10~--------9-9h10~--9------|
C|---7--------------7------------10-7-|
G|------------------------------------|
C|-5--------------5-------------------|

Guitar 2:
D|------------------------------------|
A|------------------------------------|
F|------------------------------------|
C|------------------------------------|
G|------------------------------------|
C|------------------------------------|

Guitar 1: (0:18)
D|------------------------------------|
A|------------------------------------|
F|-----9-9h10~--------9-9h10~--9------|
C|---7--------------7------------10-7-|
G|------------------------------------|
C|-0--------------0-------------------|

Guitar 2:
D|------------------------------------|
A|------------------------------------|
F|------------------------------------|
C|------------------------------------|
G|------------------------------------|
C|------------------------------------|

Guitar 1: (0:23)
D|-----------------------------------|
A|-----------------------10----------|
F|-----9-9h10~------7-10----7-10-7-9-|
C|---7-------------------------------|
G|-----------------------------------|
C|-5--------------8------------------|

Guitar 2:
D|-----------------------------------|
A|-----------------------------------|
F|--------------------------7-10-7-9-|
C|-----------------------------------|
G|-----------------------------------|
C|-----------------------------------|

Guitar 1: (0:29)
D|------------------------------------|
A|------------------------------------|
F|-----9-9h10~--------9-9h10~--9------|
C|---7--------------7------------10-7-|
G|------------------------------------|
C|-0--------------0-------------------|

Guitar 2:
D|------------------------------------|
A|------------------------------------|
F|------------------------------------|
C|-0~---------------------------------|
G|-0~---------------------------------|
C|-0~---------------------------------|

Guitar 1: (3:34)
D|-----------------------------------|
A|-------------------------10-8------|
F|-----9-9h10~------9h10----------10-|
C|---7-------------------------------|
G|-----------------------------------|
C|-5--------------8------5------7----|

D|-----------------------------------|
A|-----------------------------------|
F|-----------------------------------|
C|-5~------------/8~----\5~----/7~---|
G|-5~------------/8~----\5~----/7~---|
C|-5~------------/8~----\5~----/7~---|

Guitar 1: (0:40)
D|----------------------------------|
A|----------------------------------|
F|-----5-5/7~---------5-5/7~--5-----|
C|---7--------------7-----------7---|
G|--------------------------------8-|
C|-0-------------0------------------|

Guitar 2:
D|------------------------------------|
A|------------------------------------|
F|-----9-9/10~--------9-9/10~--9------|
C|---7--------------7------------10-7-|
G|------------------------------------|
C|-0--------------0-------------------|

Guitar 1: (0:45)
D|------------------------------------|
A|------------------------------------|
F|-----5-5h7~---------7-7/10~--9------|
C|---7--------------7------------10-7-|
G|------------------------------------|
C|-5-------------8--------------------|

Guitar 2:
D|--------------------------------------|
A|--------------------------------------|
F|-----9-9h10~---------10-10/14-12------|
C|---7--------------10-------------14-8-|
G|--------------------------------------|
C|-5--------------8---------------------|


Guitar 1: (0:51)
D|------------------------------------|
A|------------------------------------|
F|-----9-9/10---------9-9h10~--9------|
C|---7--------------7------------10-7-|
G|------------------------------------|
C|-0--------------0-------------------|

Guitar 2:
D|-------------------------------------------|
A|-------------------------------------------|
F|------12-12/14~--------12-12/14~--12-------|
C|---10---------------10---------------14-10-|
G|-------------------------------------------|
C|-0----------------0------------------------|


Guitar 1: (0:56)
D|--------------------------------|
A|------------------------6p5-----|
F|-----9-9h10~------5/7---------7-|
C|---7----------------------------|
G|--------------------------------|
C|-5--------------8-----5-----7---|

Guitar 2:
D|-------------------------------------|
A|---------------------------10p8------|
F|------12-12/14~-----9/10----------10-|
C|---10--------------------------------|
G|-------------------------------------|
C|-5----------------8------5------7----|
Guitar 1: (1:02)
D|----|
A|----|
F|----|
C|-0~-|
G|-0~-|
C|-0~-|

Guitar 2:
D|----|
A|----|
F|----|
C|-0~-|
G|-0~-|
C|-0~-|


Enjoy...Comments/Questions/Corrections email me at hernandezdanni@yahoo.com
Suggest correction
What's this?
You can suggest a correction to this tab. Community and Mods will review your correction and vote to approve or reject it.
comments
print report bad tab
2 comments total.
0 reply
tekee007 28 wrote on September 13 2009, 12:16 pm

this sounds pretty good to me

0 reply
AJSaw 609 wrote on August 27 2010, 11:35 pm

gooood stuffff

guest
You may want to rate the tab now too:
select rating
Please do not post tabs as comments. Select "correction" instead!