Oops, an error
Loading. Please wait.

Sound Of Truth Bass Tab

4,750 views 1 this week
no commentswrite comment
1 2 3 4 5
3 more votes to show rating
add to favorites
launch autoscroll
font size
0
reset
guitar tuner
Autoscroll
slow
fast
+/-
esc
set tempo
stop
Help us to improve Ultimate-Guitar.com Take our survey!
×
Author
Difficulty
Tuning
novice
D A D G B E
        Umm im bored so im tabbing this!   Tabbed by:Erik Wymer

 / \= slide
   L= Whole note
   h= hammer on
   p= pull off


                Intro
G||--------------------------------------------------------------|
D||--------------------------------------------------------------|
A||--------------111111111111------------------------------------|
D||-000000000000--------------000000000000-555555-333333-55-0----|


G||------------------------------------------------------------|
D||------------------------------------------------------------|
A||---------------111111111111---------------------------------|
D||-000000000000--------------0000000000-3333333-555555-777777-|

         pre-chorus
G||---------------------------------|
D||---------------------------------|
A||---------3---1---3---------------|
D||-0----0------------00000-000-000-|
    L

          chorus 1
G||-----------------------------------|
D||-----------------------------------|
A||----------------33-1-1-3-----------|
D||-0--0--00-00-33----------000000000-|  x2
    L

           verse 1
G||-------------------------------------------------------------------|
D||-------------------------------------------------------------------|
A||------------33333-----------33333--111111111-33333-111111111-3-0---|
D||-000000000--------000000000--------------------------------------3-|

                 Bridge
G||------------------------------------------------------|
D||------------------------------------------------------|
A||-------------111111111111-----------------------------|
D||-00000000000--------------000000000000--5555-33-55-00-|

G||----------------------------------------------------------------|
D||----------------------------------------------------------------|
A||-------------111111111111---------------------------------------|
D||-00000000000--------------000000000000-33333-55555-7777-0000000-|


          Break Down
G||---------------------------------|
D||---------------------------------|
A||--------8h5--8h5--8h5----3333333-|
D||-12/0------00---00----00---------| x4



            Pre Solo
G||---------------------------------------------|
D||---------------------------------------------|
A||-0----------0--0-----------------------------|
D||----0---3---------0--3--7-6--0--3--7-6--0--3-|


          Solo
G||-------------------------------------------|
D||-------------------------------------------|
A||-------3333------3333-1--1-3333-1--1---3p0-|
D||-0--0-------0--0---------------------------| x2


               Pre Chorus
G||------------------------------------------------|
D||------------------------------------------------|
A||---------3--1--3-------------3--1--3------------|
D||-0---0----------0-----0---0----------00000000000|


                 Outro
G||-------------------------------------------------------------|
D||-------------------------------------------------------------|
A||----------33--11-33-----------33-11-33--5--5--5--5---333-----|
D||-0000--33------------0000--33-------------0--0--0--0-----12/-|



Suggest correction
Give kudos to tab author, rate the tab!
1 2 3 4 5
comments
print report bad tab
guest
You may want to rate the tab now too:
select rating
Wanna post a correction for this tab? Suggest correction