Oops, an error
Loading. Please wait.

The Beginning Bass Tab

version 1
version 1

Whole song

Interactive

664 views 1 this week
2 commentsread comments
1 2 3 4 5
please rate
add to favorites
launch autoscroll
font size
0
reset
guitar tuner
Tab Pro tools
  • play this tab
  • loop segment
  • change instrument
  • show fretboard
  • metronome
Autoscroll
slow
fast
+/-
esc
set tempo
stop
Contributor
Difficulty
Tuning
intermediate
C G C F A D
                                The Beginning                                   


                                As I Lay Dying

Tabbed by-Trevor Winchenbaugh
Email-ZeroSkater7286@aol.com
AIM-AoA Avenge SOB




      E  E  Q    Q    E  E     E  E  E  Q    E  E  E     W                 
F||-------------------------|-------------------------|-------------------|
C||*------------------------|-------------------------|-------------------|
G||*------------------------|-------------------------|-------------------|
C||---0--0--3----3----0--3--|--L--0--3--3----0--3--8--|--L----------------|


  W                 4x   W                   W                 
--------------------||--------------------|-------------------|
-------------------*||*-------------------|-------------------|
-------------------*||*-------------------|-------------------|
--L-----------------||---8----------------|--L----------------|


   W                   W                   E  E  Q    Q    E  E   
--------------------|-------------------|------------------------|
--------------------|-------------------|------------------------|
--------------------|-------------------|------------------------|
--10----------------|--7----------------|--0--0--3----3----0--0--|


  Q    Q    S S S S S S S S    E  E  Q    Q    E  E   
----------------------------|------------------------|
----------------------------|------------------------|
----------------------------|------------------------|
--3----3----0-0-0-0-0-0-0-0-|--0--0--3----3----0--0--|


  Q    Q    S S S S S S S S      W                   W                 
-----------------------------||-------------------|-------------------|
----------------------------*||-------------------|-------------------|
----------------------------*||-------------------|-------------------|
--3----3----0-0-0-0-0-0-0-0--||--8----------------|--L----------------|


   W                   W                     Q               
--------------------|-------------------||--------|--------||
--------------------|-------------------||*-------|-------*||
--------------------|-------------------||*-------|-------*||
--10----------------|--L----------------||---0----|--------||


  Q    E  Q    E  E  E     Q    E  Q    E  E  E     Q    E  E  S S E  E  E   
------------------------|------------------------|--------------------------|
------------------------|------------------------|--------------------------|
------------------------|------------------------|--------------------------|
--8----8--8----8--8--8--|--7----7--7----7--7--7--|--0----0--0--0-0-0--0--0--|


  S S E  E  E  S S E  E  E     Q    E  Q    E  E  E     Q    E  Q    E  E  E   
----------------------------|------------------------|------------------------|
----------------------------|------------------------|------------------------|
----------------------------|------------------------|------------------------|
--0-0-0--0--0--0-0-0--0--0--|--8----8--8----8--8--8--|--7----7--7----7--7--7--|


  Q    E  E  S S E  E  E     S S E  E  E  S S E  E  E   
--------------------------|----------------------------|
--------------------------|----------------------------|
--------------------------|----------------------------|
--0----0--0--0-0-0--0--0--|--0-0-0--0--0--0-0-0--0--0--|


  Q    E  Q    E  E  E     Q    E  Q    E  E  E     Q    E  E  S S E  E  E   
------------------------|------------------------|--------------------------|
------------------------|------------------------|--------------------------|
------------------------|------------------------|--------------------------|
--8----8--8----8--8--8--|--7----7--7----7--7--7--|--0----0--0--0-0-0--0--0--|


  S S E  E  E  S S E  E  E     Q    E  Q    E  E  E     Q    E  Q    E  E  E   
----------------------------|------------------------|------------------------|
----------------------------|------------------------|------------------------|
----------------------------|------------------------|------------------------|
--0-0-0--0--0--0-0-0--0--0--|--8----8--8----8--8--8--|--7----7--7----7--7--7--|


  Q    E  Q    E  E  E     Q    E  Q    E  E  E     Q    E  Q    E  E  E   
------------------------|------------------------|------------------------|
------------------------|------------------------|------------------------|
------------------------|------------------------|------------------------|
--5----5--5----5--5--5--|--7----7--7----7--7--7--|--8----8--8----8--8--8--|


  Q    E  Q    E  E  E     Q    E  Q    E  E  E     Q    E  Q    E  E  E   
------------------------|------------------------|------------------------|
------------------------|------------------------|------------------------|
------------------------|------------------------|------------------------|
--8----8--8----8--8--8--|--5----5--5----5--5--5--|--7----7--7----7--7--7--|


  Q    E  Q    E  E  E     Q    E  Q    E  E  E     E       Q    Q    H         
------------------------|------------------------|-----||----------------------|
------------------------|------------------------|-----||*---------------------|
------------------------|------------------------|-----||*---------------------|
--8----8--8----8--8--8--|--8----8--8----8--8--8--|--L--||---0----0----0--------|


  Q    Q    E  E  E  E     Q    Q    H           Q    Q    E  E  E  E   
------------------------|---------------------|------------------------|
------------------------|---------------------|------------------------|
------------------------|---------------------|------------------------|
--0----0----0--0--0--2--|--L----0----0--------|--0----0----0--0--0--3--|


  Q    Q    H           Q    Q    E  E  E  E     Q    Q    H                 
---------------------|------------------------|---------------------|------||
---------------------|------------------------|---------------------|-----*||
---------------------|------------------------|---------------------|-----*||
--L----0----0--------|--0----0----0--0--0--5--|--L----0----0--------|------||


        Q    E  Q    E  E  E     Q    E  Q    E  E  E   
-----|------------------------|------------------------|
-----|------------------------|------------------------|
-----|------------------------|------------------------|
-----|--5----5--5----5--5--5--|--7----7--7----7--7--7--|


  Q    E  Q    E  E  E     Q    E  Q    E  E  E     Q    E  Q    E  E  E   
------------------------|------------------------|------------------------|
------------------------|------------------------|------------------------|
------------------------|------------------------|------------------------|
--8----8--8----8--8--8--|--8----8--8----8--8--8--|--5----5--5----5--5--5--|


  Q    E  Q    E  E  E     Q    E  Q    E  E  E     Q    E  Q    E  E  E   
------------------------|------------------------|------------------------|
------------------------|------------------------|------------------------|
------------------------|------------------------|------------------------|
--7----7--7----7--7--7--|--8----8--8----8--8--8--|--8----8--8----8--8--8--|


        Q    Q    E  E  E  E     E  E  Q    E  E  E  E   
-----|------------------------|-------------------------|
-----|------------------------|-------------------------|
-----|------------------------|-------------------------|
-----|--0----3----0--0-----0--|--L--0--3----2--3-----8--|


  E  E  Q    E  E  E   E     E  E   E  E  E  E  E  E   
--------------------------|---------------------------|
--------------------------|---------------------------|
--------------------------|---------------------------|
--L--0--8----7--8-----10--|--L--0--10--0--8--7--5--0--|


  E  E  Q    E  E  E  E     E  E  Q    E  E  E  E     E  E  Q    E  E  E   E   
-------------------------|-------------------------|--------------------------|
-------------------------|-------------------------|--------------------------|
-------------------------|-------------------------|--------------------------|
--L--0--3----0--0-----0--|--L--0--3----2--3-----8--|--L--0--8----7--8-----10--|


  E  E   E  E  E  E  E  E     E  E  Q    E  E  E  E     E  E  Q    E  E  E  E   
---------------------------|-------------------------|-------------------------|
---------------------------|-------------------------|-------------------------|
---------------------------|-------------------------|-------------------------|
--L--0--10--0--8--7--5--0--|--L--0--3----0--0-----0--|--L--0--3----2--3-----8--|


  E  E  Q    E  E  E   E     E  E   E  E  E  E  E  E       W                 
--------------------------|---------------------------||--------------------|
--------------------------|---------------------------||*-------------------|
--------------------------|---------------------------||*-------------------|
--L--0--8----7--8-----10--|--L--0--10--0--8--7--5--0--||---8----------------|


  W                    W                   W                 
-------------------|--------------------|-------------------|
-------------------|--------------------|-------------------|
-------------------|--------------------|-------------------|
--L----------------|--10----------------|--7----------------|


  E  E  Q    Q    E  E     Q    Q    S S S S S S S S    E  E  Q    Q    E  E   
------------------------|----------------------------|------------------------|
------------------------|----------------------------|------------------------|
------------------------|----------------------------|------------------------|
--0--0--3----3----0--0--|--3----3----0-0-0-0-0-0-0-0-|--0--0--3----3----0--0--|


  Q    Q    S S S S S S S S      W                   W                 
-----------------------------||-------------------|-------------------|
----------------------------*||-------------------|-------------------|
----------------------------*||-------------------|-------------------|
--3----3----0-0-0-0-0-0-0-0--||--8----------------|--L----------------|


   W                   W                   Q    E  Q    E  E  E   
--------------------|-------------------|------------------------|
--------------------|-------------------|------------------------|
--------------------|-------------------|------------------------|
--10----------------|--L----------------|--5----5--5----5--5--5--|


  Q    E  Q    E  E  E     Q    E  Q    E  E  E     Q    E  Q    E  E  E   
------------------------|------------------------|------------------------|
------------------------|------------------------|------------------------|
------------------------|------------------------|------------------------|
--7----7--7----7--7--7--|--8----8--8----8--8--8--|--8----8--8----8--8--8--|


  Q    E  Q    E  E  E     Q    E  Q    E  E  E     Q    E  Q    E  E  E   
------------------------|------------------------|------------------------|
------------------------|------------------------|------------------------|
------------------------|------------------------|------------------------|
--5----5--5----5--5--5--|--7----7--7----7--7--7--|--8----8--8----8--8--8--|


  Q    E  Q    E  E  E     E     Q    Q    E  E  E  E   
------------------------|-----|------------------------|
------------------------|-----|------------------------|
------------------------|-----|------------------------|
--8----8--8----8--8--8--|--L--|--0----3----0--0-----0--|


  E  E  Q    E  E  E  E     E  E  Q    E  E  E   E   
-------------------------|--------------------------|
-------------------------|--------------------------|
-------------------------|--------------------------|
--L--0--3----2--3-----8--|--L--0--8----7--8-----10--|


  E  E   E  E  E  E  E  E     E  E  Q    E  E  E  E     E  E  Q    E  E  E  E   
---------------------------|-------------------------|-------------------------|
---------------------------|-------------------------|-------------------------|
---------------------------|-------------------------|-------------------------|
--L--0--10--0--8--7--5--0--|--L--0--3----0--0-----0--|--L--0--3----2--3-----8--|


  E  E  Q    E  E  E   E     E  E   E  E  E  E  E  E   
--------------------------|---------------------------|
--------------------------|---------------------------|
--------------------------|---------------------------|
--L--0--8----7--8-----10--|--L--0--10--0--8--7--5--0--|


    E  E  Q    E  E  E  E     E  E  Q    E  E  E  E   
|--------------------------|-------------------------|
|*-------------------------|-------------------------|
|*-------------------------|-------------------------|
|---L--0--3----0--0-----0--|--L--0--3----2--3-----8--|


  E  E  Q    E  E  E   E     E  E   E  E  E  E  E  E     
--------------------------|----------------------------||
--------------------------|---------------------------*||
--------------------------|---------------------------*||
--L--0--8----7--8-----10--|--L--0--10--0--8--7--5--0---||


  E  E  Q    E  E  E   E     E  E   E  E  E  E  E  E                           
--------------------------|---------------------------|-----|-----|-----|-----|
--------------------------|---------------------------|-----|-----|-----|-----|
--------------------------|---------------------------|-----|-----|-----|-----|
--L--0--8----7--8-----10--|--L--0--10--0--8--7--5--0--|-----|-----|-----|-----|


-----|-----|-----|-----|-----|-----|-----|-----|-----|-----|-----|-----||
-----|-----|-----|-----|-----|-----|-----|-----|-----|-----|-----|-----||
-----|-----|-----|-----|-----|-----|-----|-----|-----|-----|-----|-----||
-----|-----|-----|-----|-----|-----|-----|-----|-----|-----|-----|-----||




Duration Legend
---------------
W - whole
H - half
Q - quarter
E - 8th
S - 16th
T - 32nd
X - 64th
. - note dotted
|-n-|  - n-tuplets


Tablature Legend
----------------
L - tied note
x - dead note
g - grace note
(n) - ghost note
> - accentuded note
NH - natural harmonic
AH - artificial harmonic
TH - tapped harmonic
SH - semi harmonic
PH - pitch harmonic
h - hammer on
p - pull off
b - bend
br - bendRelease
pb - preBend
pbr - preBendRelease
brb - bendReleaseBend
\n/ - tremolo bar dip
\n - tremolo bar dive
-/n - tremolo bar Release up
/n\ - tremolo bar inverted dip
/n - tremolo bar return
-\n - tremolo bar Release down
S - shift slide
s - legato slide
/ -  slide into from below or out of upwards
\ -  slide into from above or out of downwards
~ - vibrato
W - wide vibrato
tr - trill
TP - tremolo picking
T - tapping
S - slap
P - pop
< - fade in
^ - brush up
v - brush down
comments
We did not receive enough feedback on this tab! Please rate:
print report bad tab
1 2 3 4 5
2 comments total.
0 reply
tdwp888 wrote on August 3 2010, 10:10 pm

hey good tab but the intro kinda sounds better like this:
G|-------------------------------------------------------|
D|-------------------------------------------------------|
A|-----3-3-5------5-7-5--3-5-3---------------------------|
E|-0-0---------0---------------3--8-8-8-8-8-8-8-8--------|

something like that. but im just saying

0 reply
tdwp888 wrote on August 3 2010, 10:11 pm

hey good tab but the intro kinda sounds better like this:
G|-------------------------------------------------------|
D|-------------------------------------------------------|
A|-----3-3-5------5-7-5--3-5-3---------------------------|
E|-0-0---------0---------------3--8-8-8-8-8-8-8-8--------|

something like that. but im just saying

I want to post or [tab]
guest
You may want to rate the tab now too:
select rating
Please do not post tabs as comments. Select "correction" instead!