Oops, an error
Loading. Please wait.

The Pain Of Seperation Bass Tab

556 views 1 this week
no commentswrite comment
1 2 3 4 5
3 more votes to show rating
add to favorites
launch autoscroll
font size
0
reset
guitar tuner
Autoscroll
slow
fast
+/-
esc
set tempo
stop
Help us to improve Ultimate-Guitar.com Take our survey!
×
Author
Difficulty
Tuning
intermediate
C G C F A D
Song: The Pain Of Seperation
Artist: As I Lay Dying
Album: Frail Words Collapse
Bassist: Clint Norris
Tuning: Drop C

              
|------------------------------------|
|-8/7/5/0--8/7/5/0--8/7/5/0--8/7/5/0-|
|------------------------------------|
|------------------------------------|

|-------------------------------------|
|-8/7/5/0--8/7/5/0--8/7/5/0--8/7/5/0--|
|-------------------------------------|
|-------------------------------------|

|-------------------------------------|
|-------------------------------------|
|-------------------------------------|
|-8/7/5/0--8/7/5/0--8/7/5/0--8/7/5/0--|

|------------------------------------
|-8/7/5/0--8/7/5/0--8/7/5/0--8/7/5/0-
|------------------------------------
|------------------------------------

|---------|
|---------|
|---------|
|-0--0--0-|

|----------------------------------|
|----------------------------------|
|----------------------------------|
|-0000--0--0000--0--0000--0--0000--|

|----------------------------------|
|----------------------------------|
|----------------------------------|
|-0000--0--0000--0--0000--0--0000--|

|-----------------|
|-----------------|
|-----------------|
|-0-0000--0--0000-|

|---------10-|
|---87--5----|
|------------|
|-0----0-0---|

|---------10-|
|---87--5----|
|------------|
|-0----0-0---|

|-----|
|-----|
|-----|
|-0*--|

|---------------------------------| 
|---------------------------------|
|---------5-------------5---5-----|
|-8-7-5-0---0-0-0-8-7-0---0---0-0-|

|-------------------------------------------------|
|-------------------------------------------------|
|-------------------------------------------------|
|-0000--0000--0000--0000--0000--0000--0000--0000--|

|-----------------|
|-----------------|
|-----------------|
|-0-0000--0--0000-|

|--------|
|--------|
|--------|
|-0-0000-|

Please rate and enjoy!
Suggest correction
Give kudos to tab author, rate the tab!
1 2 3 4 5
comments
print report bad tab
guest
You may want to rate the tab now too:
select rating
Wanna post a correction for this tab? Suggest correction