Oops, an error
Loading. Please wait.

The Pain Of Seperation Tab

1,247 views 1 this week
no commentswrite comment
1 2 3 4 5
please rate
add to favorites
launch autoscroll
font size
0
reset
how to read this tab
guitar tuner
Autoscroll
slow
fast
+/-
esc
set tempo
stop
Help us to improve Ultimate-Guitar.com Take our survey!
×
Tuning
C G C F A D
alright this is my first tab so if something is wrong... sorry :)


D|----------|   D|----------|    D|---------| 
A|----------|   A|----------|    A|---------|
F|----------|x8 F|----------|x4  F|---------|x4 
C|-8p7p5----|   C|----------|    C|-8p7p5---|
G|----------|   G|-7p5p4----|    G|---------|
C|----------|   C|----------|    C|---------|
                                                \
                                                x2
                                                /
D|-----------------------------------|
A|-------0-------0-------0-------0---|
F|-------0-------0-------0-------0---| second time around play 
C|---00000---00000---00000---00000---| this part twice.
G|---00000---00000---00000---00000---|
C|---00000---00000---00000---00000---|
P.M. ....    ....    ....    ....

D|---------------------------|
A|---------------------------|
F|---------------------------|
C|---0000-0000-0000--0-0-*3--|
G|---0000-0000-0000--0-0-----|
C|---0000-0000-0000--0-0-----|
P.M. .... .... ....          

D|------------|    
A|------------|    
F|------------|x8   
C|---0-0000---|    
G|---0-0000---|    
C|---0-0000---|    
P.M. . ....            

D|-------------|    D|----------|--------------------|
A|----------10-|    A|----------|-----------------10-|
F|----------13-|x4  F|----------|-----------------13-|x9 last time let
C|---0-0000----|    C|--0-0000--|--0-0000--0-0000----|    10/13 ring
G|---0-0000----|    G|--0-0000--|--0-0000--0-0000----|
C|---0-0000----|    C|--0-0000--|--0-0000--0-0000----|
P.M. . ....             . ....     . ....  . ....

D|--------|
A|---10---|
F|---13---| i dont know the srtum
C|--------| so youll have to just listen
G|--------| to the song
C|--------|

D|--------------------------------------------------------------------------|
A|--------------------------------------------------------------------------|
F|-------10-------10-------10-------10-------10-------10-------10-------10--|
C|-8p7-7----8p7-7----8p7-7----8p7-7----8p7-7----8p7-7----8p7-7----8p7-7-----|
G|--------------------------------------------------------------------------|
C|--------------------------------------------------------------------------|

D|-------------|
A|-------------|
F|-------------|x4
C|---8-7-7-----|
G|-------------|
C|-------------|
P.M. . . .

D|--------------------------------------------------------------------------|
A|--------------------------------------------------------------------------|
F|-------10-------10-------10-------10-------10-------10-------10-------10--|
C|-8p7-7----8p7-7----8p7-7----8p7-7----8p7-7----8p7-7----8p7-7----8p7-7-----|
G|--------------------------------------------------------------------------|
C|--------------------------------------------------------------------------|

D|------------------------------------------------------|  
A|------------------------------------------------------|
F|------------------------------------------------------|
C|---8-7-7-8-7-7-8-7-7-8-7-7-8-7-7-8-7-7-8-7-7-8-7-7----|
G|------------------------------------------------------|
C|------------------------------------------------------|
P.M. . . . . . . . . . . . .

D|--------------------------------------------------------------------------------------------------|
A|--------------------------------------------------------------------------------------------------|
F|--------------------------------------------------------------------------------------------------|
C|--------------------------------------------------------------------------------------------------|
G|--------------------------------------------------------------------------------------------------|
C|8p7-0-7-12-00-8p7-12-12--8p7-0-7-12-00-8p7-12-12--8p7-0-7-12-00-8p7-12-12--8p7-0-7-12-00-8p7-12-12|
               ..                       ..                       ..          

D|----------------------|
A|----------------------|
F|----------------------|
C|----------------------|
G|---0000----0000-------|
C|---0000-12-0000-12-12-|
P.M. ....    ....

D|--------------------------------------------------------------------------------------------------|
A|--------------------------------------------------------------------------------------------------|
F|--------------------------------------------------------------------------------------------------|
C|--------------------------------------------------------------------------------------------------|
G|--------------------------------------------------------------------------------------------------|
C|8p7-0-7-12-00-8p7-12-12--8p7-0-7-12-00-8p7-12-12--8p7-0-7-12-00-8p7-12-12--8p7-0-7-12-00-8p7-12-12|
P.M.           ..                       ..                      

D|---------|     |--------------------|------------|
A|---------|     |-----------------10-|------------|
F|---------|x8   |-----------------13-|x9 ---------|
C|---0000--|     |--0-0000--0-0000----|------------|   
G|---0000--|     |--0-0000--0-0000----|------000---|
C|---0000--|     |--0-0000--0-0000----|------000---|
P.M. ....           . ....  . ....           ... 



there you go my first tab ever! im 90% sure its right :D this is my email if
you would like to let me no if anything is wrong.. ENJOii ^^

Emo_mex91@yahoo.com 
Suggest correction
Give kudos to tab author, rate the tab!
1 2 3 4 5
comments
print report bad tab
guest
You may want to rate the tab now too:
select rating
Wanna post a correction for this tab? Suggest correction