Oops, an error
Loading. Please wait.

This Is Who We Are Bass Tab

version 1
version 1

Whole song

Interactive

3,391 views 6 this week
2 commentsread comments
1 2 3 4 5
please rate
add to favorites
launch autoscroll
font size
0
reset
guitar tuner
Tab Pro tools
  • play this tab
  • loop segment
  • change instrument
  • show fretboard
  • metronome
×
Best way to learn
"This Is Who We Are"
Autoscroll
slow
fast
+/-
esc
set tempo
stop
Contributor
Difficulty
Tuning
intermediate
C G C F A D
                              This Is Who We Are                                


                                As I Lay Dying

Tabbed by-Trevor Winchenbaugh
Email-ZeroSkater7286@aol.com
AIM-ZeroSkater7286

This song is best done with a pick.



     E  E  E  E  E  E  E  E     W                   W                 
F||--------------------------|-------------------|-------------------|
C||--------------------------|-------------------|-------------------|
G||--------------------------|-------------------|-------------------|
C||--2--L--L--L--L--L--L--L--|--L----------------|--5----------------|


  W                     W                   W                 
-------------------||--------------------|-------------------|
-------------------||*-------------------|-------------------|
-------------------||*-------------------|-------------------|
--9----------------||---2----------------|--L----------------|


  W                   W                 3x  W                 
-------------------|--------------------||-------------------|
-------------------|-------------------*||-------------------|
-------------------|-------------------*||-------------------|
--5----------------|--9-----------------||--2----------------|


  S S E  S S E  S S E  S S E     S S E  S S E  S S E  S S E   
------------------------------|------------------------------|
------------------------------|------------------------------|
------------------------------|------------------------------|
--2-2-2--2-2-2--2-2-2--2-2-2--|--2-2-2--2-2-2--2-2-2--2-2-2--|


  S S E  S S E  S S E  S S E     S S E  E  E  S S E  E  E   
------------------------------|----------------------------|
------------------------------|----------------------------|
------------------------------|--3-3-3--------5-5-2--------|
--2-2-2--2-2-2--2-2-2--2-2-2--|----------------------------|


  S S E  S S E  S S E  S S E     S S E  S S E  S S E  S S E   
------------------------------|------------------------------|
------------------------------|------------------------------|
------------------------------|------------------------------|
--2-2-2--2-2-2--2-2-2--2-2-2--|--2-2-2--2-2-2--2-2-2--2-2-2--|


  S S E  S S E  S S E  S S E     E  E  E  E  E  E  E  E   
------------------------------|--------------------------|
------------------------------|--------------------------|
------------------------------|--3--3--3--3--5--5--5--5--|
--2-2-2--2-2-2--2-2-2--2-2-2--|--------------------------|


  S S E  S S E  S S E  E  E     S S E  S S E  S S E  E  E   
-----------------------------|-----------------------------|
-----------------------------|-----------------------------|
-----------------------------|-----------------------------|
--2-2-2--2-2-2--2-2-2--2--2--|--2-2-2--2-2-2--2-2-2--2--2--|


  S S E  S S E  S S E  E  E     E   E  E  E   E  E   E  E   
-----------------------------|-----------------------------|
-----------------------------|-----------------------------|
-----------------------------|--7---------9--10---------9--|
--2-2-2--2-2-2--2-2-2--2--2--|-----10--9---------9--12-----|


  S S E  S S E  S S E  E  E     S S E  S S E  S S E  E  E   
-----------------------------|-----------------------------|
-----------------------------|-----------------------------|
-----------------------------|-----------------------------|
--2-2-2--2-2-2--2-2-2--2--2--|--2-2-2--2-2-2--2-2-2--2--2--|


  S S E  S S E  S S E  E  E     E   E  E  Q     E  E  E   
-----------------------------|---------------------------|
-----------------------------|---------------------------|
-----------------------------|--7------------------------|
--2-2-2--2-2-2--2-2-2--2--2--|-----10--9--7----10--9--5--|


  S S E  S S E  S S E  E  E     S S E  S S E  S S E  E  E   
-----------------------------|-----------------------------|
-----------------------------|-----------------------------|
-----------------------------|-----------------------------|
--2-2-2--2-2-2--2-2-2--2--2--|--2-2-2--2-2-2--2-2-2--2--2--|


  S S E  S S E  S S E  E  E     S S E  S S E  S S E  E  E   
-----------------------------|-----------------------------|
-----------------------------|-----------------------------|
-----------------------------|-----------------------------|
--2-2-2--2-2-2--2-2-2--2--2--|--2-2-2--2-2-2--2-2-2--2--2--|


  S S E  S S E  S S E  E  E     S S E  S S E  S S E  E  E   
-----------------------------|-----------------------------|
-----------------------------|-----------------------------|
-----------------------------|-----------------------------|
--2-2-2--2-2-2--2-2-2--2--2--|--2-2-2--2-2-2--2-2-2--2--2--|


  S S E  S S E  S S E  E  E     S S E  S S E  S S E  E  E   
-----------------------------|-----------------------------|
-----------------------------|-----------------------------|
-----------------------------|-----------------------------|
--2-2-2--2-2-2--2-2-2--2--2--|--2-2-2--2-2-2--2-2-2--2--2--|


  E  E  E  E  E  E  E  E     E  E  E  E  E  E  E  E   
--------------------------|--------------------------|
--------------------------|--------------------------|
--------------------------|--------------------------|
--2--2--2--2--2--2--2--2--|--2--2--2--2--2--2--2--2--|


  S S E  E  E  E  E  E  E     E  E  E  E  E  E   Q      
---------------------------|---------------------------|
---------------------------|---------------------------|
---------------------------|---------------------------|
--2-2-2--2--2--2--2--2--2--|--2--2--2--2--2--2--12\----|


    E  E  E  E  E  E  E  E     E  E  E  E  E  E  E  E   
|---------------------------|--------------------------|
|*--------------------------|--------------------------|
|*--------------------------|--------------------------|
|---2--2--2--2--2--2--2--2--|--2--2--2--2--2--2--2--2--|


  E  E  E  E  E  E  E  E     W                   E  E  E  E  E  E  E  E   
--------------------------|-------------------|--------------------------|
--------------------------|-------------------|--------------------------|
--------------------------|-------------------|--------------------------|
--2--2--2--2--2--2--2--2--|--L----------------|--2--2--2--2--2--2--2--2--|


  E  E  E  E  E  E  E  E     E  E  E  E  E  E  E  E     W                   
--------------------------|--------------------------|--------------------||
--------------------------|--------------------------|-------------------*||
--------------------------|--------------------------|-------------------*||
--2--2--2--2--2--2--2--2--|--2--2--2--2--2--2--2--2--|--L-----------------||


  E  E  E  E  E  E  E  E       E  E  E  E  E  E  E  E   
--------------------------||---------------------------|
--------------------------||*--------------------------|
--------------------------||*--------------------------|
--2-----------------------||---2--2--2--2--2--2--2--2--|


  E  E  E  E  E  E  E  E      E   E   E   E   E   E   E   E   
--------------------------|----------------------------------|
--------------------------|----------------------------------|
--------------------------|----------------------------------|
--2--2--2--2--2--2--2--2--|--10--10--10--10--10--10--10--10--|


   E   E   E   E   E   E   E   E     E  E  E  E  E  E  E  E   
----------------------------------|--------------------------|
----------------------------------|--------------------------|
----------------------------------|--------------------------|
--10--10--10--10--10--10--10--10--|--2--2--2--2--2--2--2--2--|


  E  E  E  E  E  E  E  E     E  E  E  E  E  E  E  E   
--------------------------|--------------------------|
--------------------------|--------------------------|
--------------------------|--------------------------|
--2--2--2--2--2--2--2--2--|--9--9--9--9--9--9--9--9--|


  E  E  E  E  E  E  E  E       E  E  E  E  E  E  E  E   
---------------------------||--------------------------|
--------------------------*||--------------------------|
--------------------------*||--------------------------|
--9--9--9--9--9--9--9--9---||--9--9--9--9--9--9--9--9--|


  E  E  E  E  E  E  E  E                 S S E  S S E  S S E  E  E   
--------------------------|-----|-----|-----------------------------|
--------------------------|-----|-----|-----------------------------|
--------------------------|-----|-----|-----------------------------|
--9--9--9--9--9--9--9--9--|-----|-----|--2-2-2--2-2-2--2-2-2--2--2--|


  S S E  S S E  S S E  E  E     S S E  S S E  S S E  E  E   
-----------------------------|-----------------------------|
-----------------------------|-----------------------------|
-----------------------------|-----------------------------|
--2-2-2--2-2-2--2-2-2--2--2--|--2-2-2--2-2-2--2-2-2--2--2--|


  E   E  E  E   E  E   E  E     S S E  S S E  S S E  E  E   
-----------------------------|-----------------------------|
-----------------------------|-----------------------------|
--7---------9--10---------9--|-----------------------------|
-----10--9---------9--12-----|--2-2-2--2-2-2--2-2-2--2--2--|


  S S E  S S E  S S E  E  E     S S E  S S E  S S E  E  E   
-----------------------------|-----------------------------|
-----------------------------|-----------------------------|
-----------------------------|-----------------------------|
--2-2-2--2-2-2--2-2-2--2--2--|--2-2-2--2-2-2--2-2-2--2--2--|


  E   E  E  Q     E  E  E       S S E  S S E  S S E  E  E   
---------------------------||------------------------------|
---------------------------||*-----------------------------|
--7------------------------||*-----------------------------|
-----10--9--7----10--9--5--||---2-2-2--2-2-2--2-2-2--2--2--|


  S S E  S S E  S S E  E  E     S S E  S S E  S S E  E  E     W                 
-----------------------------|-----------------------------|-------------------|
-----------------------------|-----------------------------|-------------------|
-----------------------------|-----------------------------|-------------------|
--2-2-2--2-2-2--2-2-2--2--2--|--2-2-2--2-2-2--2-2-2--2--2--|--L----------------|


  S S E  S S E  S S E  E  E     S S E  S S E  S S E  E  E   
-----------------------------|-----------------------------|
-----------------------------|-----------------------------|
-----------------------------|-----------------------------|
--2-2-2--2-2-2--2-2-2--2--2--|--2-2-2--2-2-2--2-2-2--2--2--|


  S S E  S S E  S S E  E  E     W                     E  E  E  E  E  E  E  E   
-----------------------------|--------------------||--------------------------|
-----------------------------|-------------------*||--------------------------|
-----------------------------|-------------------*||--------------------------|
--2-2-2--2-2-2--2-2-2--2--2--|--L-----------------||--2-----------------------|


              S S S S  H.               W                   W                 
-----|-----|-------------------------|-------------------|-------------------|
-----|-----|-------------------------|-------------------|-------------------|
-----|-----|-------------------------|-------------------|-------------------|
-----|-----|----------12\------------|--2----------------|--5----------------|


  W                   W                     E  E  E  E  E  E  E  E   
-------------------|-------------------||---------------------------|
-------------------|-------------------||*--------------------------|
-------------------|-------------------||*--------------------------|
--7----------------|--9----------------||---2--2--2--2--2--2--2--2--|


  E  E  E  E  E  E  E  E      E   E   E   E   E   E   E   E   
--------------------------|----------------------------------|
--------------------------|----------------------------------|
--------------------------|----------------------------------|
--2--2--2--2--2--2--2--2--|--10--10--10--10--10--10--10--10--|


   E   E   E   E   E   E   E   E     E  E  E  E  E  E  E  E   
----------------------------------|--------------------------|
----------------------------------|--------------------------|
----------------------------------|--------------------------|
--10--10--10--10--10--10--10--10--|--2--2--2--2--2--2--2--2--|


  E  E  E  E  E  E  E  E     E  E  E  E  E  E  E  E   
--------------------------|--------------------------|
--------------------------|--------------------------|
--------------------------|--------------------------|
--2--2--2--2--2--2--2--2--|--9--9--9--9--9--9--9--9--|


  E  E  E  E  E  E  E  E       E  E  E  E  E  E  E  E   
---------------------------||--------------------------|
--------------------------*||--------------------------|
--------------------------*||--------------------------|
--9--9--9--9--9--9--9--9---||--9--9--9--9--9--9--9--9--|


  E  E  E  E  E  E  E  E       E  E  E  E  E  E  E  E   
--------------------------||---------------------------|
--------------------------||*--------------------------|
--------------------------||*--------------------------|
--9--9--9--9--9--9--9--9--||---2--2--2--2--2--2--2--2--|


  E  E  E  E  E  E  E  E      E   E   E   E   E   E   E   E   
--------------------------|----------------------------------|
--------------------------|----------------------------------|
--------------------------|----------------------------------|
--2--2--2--2--2--2--2--2--|--10--10--10--10--10--10--10--10--|


   E   E   E   E   E   E   E   E     E  E  E  E  E  E  E  E   
----------------------------------|--------------------------|
----------------------------------|--------------------------|
----------------------------------|--------------------------|
--10--10--10--10--10--10--10--10--|--2--2--2--2--2--2--2--2--|


  E  E  E  E  E  E  E  E     E  E  E  E  E  E  E  E   
--------------------------|--------------------------|
--------------------------|--------------------------|
--------------------------|--------------------------|
--2--2--2--2--2--2--2--2--|--9--9--9--9--9--9--9--9--|


  E  E  E  E  E  E  E  E       W                   W                 
---------------------------||-------------------|-------------------|
--------------------------*||-------------------|-------------------|
--------------------------*||-------------------|-------------------|
--9--9--9--9--9--9--9--9---||--2----------------|--L----------------|


   W                   W                   W                 
--------------------|-------------------|-------------------|
--------------------|-------------------|-------------------|
--------------------|-------------------|-------------------|
--10----------------|--L----------------|--2----------------|


  W                   W                   W                   W                 
-------------------|-------------------|-------------------|-------------------|
-------------------|-------------------|-------------------|-------------------|
-------------------|-------------------|-------------------|-------------------|
--L----------------|--9----------------|--9----------------|--2----------------|


  W                    W                   W                 
-------------------|--------------------|-------------------|
-------------------|--------------------|-------------------|
-------------------|--------------------|-------------------|
--L----------------|--10----------------|--L----------------|


  W                   W                   W                   W                 
-------------------|-------------------|-------------------|-------------------|
-------------------|-------------------|-------------------|-------------------|
-------------------|-------------------|-------------------|-------------------|
--2----------------|--L----------------|--9----------------|--9----------------|


  W                   W                   W                 
-------------------|-------------------|-------------------|
-------------------|-------------------|-------------------|
-------------------|-------------------|-------------------|
--2----------------|--L----------------|--L----------------|


  W                  
-------------------||
-------------------||
-------------------||
--L----------------||




Duration Legend
---------------
W - whole
H - half
Q - quarter
E - 8th
S - 16th
T - 32nd
X - 64th
. - note dotted
|-n-|  - n-tuplets


Tablature Legend
----------------
L - tied note
x - dead note
g - grace note
(n) - ghost note
> - accentuded note
NH - natural harmonic
AH - artificial harmonic
TH - tapped harmonic
SH - semi harmonic
PH - pitch harmonic
h - hammer on
p - pull off
b - bend
br - bendRelease
pb - preBend
pbr - preBendRelease
brb - bendReleaseBend
\n/ - tremolo bar dip
\n - tremolo bar dive
-/n - tremolo bar Release up
/n\ - tremolo bar inverted dip
/n - tremolo bar return
-\n - tremolo bar Release down
S - shift slide
s - legato slide
/ -  slide into from below or out of upwards
\ -  slide into from above or out of downwards
~ - vibrato
W - wide vibrato
tr - trill
TP - tremolo picking
T - tapping
S - slap
P - pop
< - fade in
^ - brush up
v - brush down
comments
We did not receive enough feedback on this tab! Please rate:
print report bad tab
1 2 3 4 5
2 comments total.
0 reply
frankibo wrote on January 9 2009, 02:45 pm

this tab is from one of the guitar pro tabs so unless you wrote one of those guitar pro tabs you shouldn't be posting this as you're own work. also its all wrong cause its in D Standard not drop C

0 reply
Bass Shredder27 wrote on August 29 2009, 10:20 am

Thanks for the tab bro.... Btw its in drop D... but ty

I want to post or [tab]
guest
You may want to rate the tab now too:
select rating
Please do not post tabs as comments. Select "correction" instead!