Oops, an error
Loading. Please wait.

Through Sruggle Bass Tab

2,347 views 1 this week
4 commentsread comments
1 2 3 4 5
please rate
add to favorites
launch autoscroll
font size
0
reset
guitar tuner
Autoscroll
slow
fast
+/-
esc
set tempo
stop
Help us to improve Ultimate-Guitar.com Take our survey!
×
Author
Difficulty
intermediate
*= hold
/= slide
x= how many times play riff

play in this order


Intro
F|-------------------|
C|-------------------|
G|-------------------| x1
C|-0*-----0*---------|

F|-------------------|
C|-------------------|
G|---3--1--4/5--2/1--| x7
C|-00-00-00---00-----|

F|-----------------------------|
C|-----------------------------|
G|-----------------------------| x1
C|-000-000-0*---0*--0*--0*-0---|

F|-----------------|
C|-----------------|
G|-1-------1-------| x2
C|--00000---00000--|

F|--------------------|
C|--------------------|
G|--------------------| x5
C|-3-55-3-55--3-55----|

F|-----------------------|
C|-----------------------|
G|-----3421-----3421-----| x4
C|-0000-----0000---------|

F|-----------------------|
C|-----------------------|
G|-----------------------| x15
C|-0*-000-0-0000-0-------|

F|-----------------------|
C|-----------------------|
G|-----------------------| x1
C|-0*------1*------2*----|

F|-----------------------|
C|-----------------------|
G|-----3421-----3421-----| x4
C|-0000-----0000---------|

F|-----------------|
C|-----------------|
G|-1-------1-------| x6
C|--00000---00000--|

F|-----------------------|
C|-----------------------|
G|-----------------------| x5
C|-0*-000-0-0000-0-------|

thi is my first so comment me about my mistakes
Suggest correction
Give kudos to tab author, rate the tab!
1 2 3 4 5
comments
print report bad tab
4 comments total. Showing first comments.
0 reply
Asilaydyingeek 73 wrote on December 21 2006, 09:31 pm

this tab sux

0 reply
Asilaydyingeek 73 wrote on February 2 2007, 08:17 pm

i don't even know why i did it

0 reply
xdeadx666 199 wrote on August 2 2007, 06:04 pm

yeah it really does suck...

guest
You may want to rate the tab now too:
select rating
Wanna post a correction for this tab? Suggest correction