Oops, an error
Loading. Please wait.

Through Struggle Bass Tab

version 1
version 1

Whole song

16,907 views 3 this week
9 commentsread comments
1 2 3 4 5
worth learning
x 8
add to favorites
launch autoscroll
font size
0
reset
guitar tuner
Autoscroll
slow
fast
+/-
esc
set tempo
stop
Help us to improve Ultimate-Guitar.com Take our survey!
×
Author
Difficulty
Tuning
novice
C G C F A D
As I Lay Dying: Through Struggle
Album: Shadows Are Security
Tuning: CGCF

Awesome song. Wear headphones and crank the bass up.

/ = Slide up
\ = Slide down
~ = Let it ring
h = Hammer on
p = Pull off
x = Mute
. = Palm mute

(0:00)
F|------|
C|------|
G|------|
C|--0~--|

(0:06)
F|------|
C|------|
G|------|
C|--0~--|

(0:12)
F|------------------------------------------|
C|------------------------------------------|
G|------------------------------------------|x3
C|--000--000--000--000--888--888--555--777--|
      .    .    .    .    .    .    .    .
(0:30)
F|----------------------------------|
C|----------------------------------|
G|----------------------------------|
C|--000--000--000--000--8888--5555--|
      .    .    .    .     .     .
(0:36)
F|---------------------------|
C|---------------------------|
G|---------------------------|
C|--0~----0~----0~----8~--5--|
                          .
(0:45)
F|---------------------------|
C|---------------------------|
G|---------------------------|x6
C|--0-000000--8-888--55--77--|

(1:15) (v^ = double pick)
F|-------------------------------------------------------|
C|-------------------------------------------------------|
G|--------------------------------------v^v^v^v^v--------|x2
C|--0000--8/10--0000--8/10--0000--8/10--000000000--8/10--|

(1:36)
F|-----------------------------------------------------|
C|-----------------------------------------------------|
G|----------------------------------------------12-----|x2
C|--0~--000--0-0-0--000--0~--000--000--000--12------8--|
          .  . . .    .        .    .    .
(1:48)
F|--------------------------------|
C|--------------------------------|
G|-------------------------12-----|
C|--0~--000--000--000--12------8--|
          .    .    .
F|-----------------------|
C|-----------------------|
G|-----------------------|
C|--0~--000--0-0-0--000--|
          .  . . .    .
F|--------------------------------|
C|--------------------------------|
G|-------------------------12-----|
C|--0~--000--000--000--12------8--|
          .    .    .
F|-----------------------|
C|-----------------------|
G|-----------------------|
C|--0~--000--0-0-0--000--|
             . . .    .
(2:00)
F|--------------------------------|
C|--------------------------------|
G|--------------------------------|x4
C|--8-8888--5-5555--0-0000000000--|

(2:21)
F|-----------------|
C|-----------------|
G|-----------------|
C|--8~----5~----0--|
                .
(2:24)
F|--------------------------------------------------|
C|--------------------------------------------------|
G|--------------------------------------------------|x2
C|--0000--8/10--0000--8/10--0000--8/10--0000--8/10--|

(2:45)
F|------------------|
C|------------------|
G|------------------|x3
C|--8~----5~----0~--|

F|-----------------|
C|-----------------|
G|-----------------|
C|--8~----5~----0--|
                .
(3:05)
F|----------------------|
C|----------------------|
G|----------------------|
C|--0-0--8-888--55--77--|
    . .
F|---------------------------|
C|---------------------------|
G|---------------------------|x3
C|--0-000000--8-888--55--77--|

F|-----------------------------------------------------------|
C|-----------------------------------------------------------|
G|-----------------------------------------------------------|
C|--0-000000--8-888--55--77--8-888--55--77--8-888--55555555--|

(3:29)
F|------------------------------------------------------------|
C|------------------------------------------------------------|____
G|------------------------------------------------------------|    |
C|--00--0000--000-0--000-0--000-0--0000--000-0--000-0--000-0--|    |
                                                                   |x2
F|-------------------------------------------------|               |
C|-------------------------------------------------|_______________|
G|-------------------------------------------------|
C|--0000--000-0--000-0--000-0--0000--000-0--000-0--|

This tab isn't 100% correct. If you find anything that needs to be changed, leave a comment and/or rate.
Suggest correction new What's this?
You can suggest a correction to this tab. Community and Mods will review your correction and vote to approve or reject it.
comments
print report bad tab
9 comments total. Showing first comments.
-1 reply
Emericask8r3506 403 wrote on October 13 2006, 09:54 pm

i messed up at (1:36)-(2:00) it SHOULD BE this...
(1:36)
F|---------------------------------------------------|
C|---------------------------------------------7-----|
G|------------------------------------------5-----8--|x2
C|--0~--000--0-0-0--000--0~--000--000--000-----------|
. . . . . . . .
(1:48)
F|--------------------------------|
C|------------------------7-------|
G|---------------------5-----8----|
C|--0~--000--000--000-------------|
. . .
F|-----------------------|
C|-----------------------|
G|-----------------------|
C|--0~--000--0-0-0--000--|
. . . . .
F|--------------------------------|
C|------------------------7-------|
G|---------------------5-----8----|
C|--0~--000--000--000-------------|
. . .
F|-----------------------|
C|-----------------------|
G|-----------------------|
C|--0~--000--0-0-0--000--|
. . . .

-2 reply
maggotblood16 125 wrote on October 19 2006, 07:18 pm

this is wrong he plays 1's not 0's. and the rest is alo inaccurate

-1 reply
xdeadx666 162 wrote on August 2 2007, 06:26 pm

(0:00)
F|------|
C|------|
G|------|
C|--0~--|

(0:06)
F|------|
C|------|
G|------|
C|--0~--|

(0:12)
F|------------------------------------------|
C|------------------------------------------|
G|------------------------------------------|x3
C|--000--000--000--000--888--888--555--888--|
. . . . . . . .
(0:30)
F|----------------------------------|
C|----------------------------------|
G|----------------------------------|
C|--000--000--000--000--8888--5555--|
. . . . . .
(0:36)
F|---------------------------|
C|---------------------------|
G|---------------------------|
C|--0~----0~----0~----8~--5--|
.
(0:45)
F|---------------------------|
C|---------------------------|
G|---------------------------|x6
C|--0000-0000-8888--5555-----|

(1:15) (v^ = double pick)
F|-------------------------------------------------------|(it will take to long to correct all this!!!!!!) but is is mainly zeros on the C cord...then 5-5-5-5--8-8-8-8----
C|-------------------------------------------------------|
G|--------------------------------------v^v^v^v^v--------|x2
C|--0000--8/10--0000--8/10--0000--8/10--000000000--8/10--|

(1:36)
F|-----------------------------------------------------|
C|-----------------------------------------------------|
G|-----------------------------------------------------|x2
C|--0~--000--0-0-0--000--0~--000--000--000--0------0---|
. . . . . . . .
(1:48)
F|--------------------------------|
C|--------------------------------|
G|--------------------------------|
C|--0~--000--000--000--0------0---|
. . .
F|-----------------------|
C|-----------------------|
G|-----------------------|
C|--0~--000--0-0-0--000--|
. . . . .
F|--------------------------------|
C|--------------------------------|
G|-------------------------12-----|
C|--0~--000--000--000--12------8--|
. . .
F|-----------------------|
C|-----------------------|
G|-----------------------|
C|--0~--000--0-0-0--000--|
. . . .
(2:00)CHORUS W/ CLINT NORRIS!!
F|--------------------------------|
C|--------------------------------|
G|--------------------------------|x4
C|----8-----5----0----------------|LET THEM RING!!!

(2:21)
F|-----------------|
C|-----------------|
G|-----------------|
C|--8~----5~----0--|
.
(2:24)
F|--------------------------------------------------|
C|--------------------------------------------------|
G|--------------------------------------------------|x2
C|--0000--8/10--0000--8/10--0000--8/10--0000--8/10--|ONCE AGAIN ALL ZEROS...THEN 5555----8888----

(2:45)CHORUS W/ CLINT NORRIS!!!!
F|------------------|
C|------------------|
G|------------------|x3
C|--8~----5~----0~--|

F|-----------------|
C|-----------------|
G|-----------------|
C|--8~----5~----0--|
.
(3:05)
F|----------------------|
C|----------------------|
G|--10--8-7-8-7---------|
C|----------------------|
. .
F|---------------------------|
C|---------------------------|
G|---------------------------|x3
C|--8888----5555----0000--0000|

F|-----------------------------------------------------------|(IM TO LAZY TO CORRECT THE REST!!!!! BUT ITS ALOT BETTER NOW!!!!
C|-----------------------------------------------------------|
G|-----------------------------------------------------------|
C|--0-000000--8-888--55--77--8-888--55--77--8-888--55555555--|

(3:29)
F|------------------------------------------------------------|
C|------------------------------------------------------------|____
G|------------------------------------------------------------| |
C|--00--0000--000-0--000-0--000-0--0000--000-0--000-0--000-0--| |
|x2
F|-------------------------------------------------| |
C|-------------------------------------------------|_______________|
G|-------------------------------------------------|
C|--0000--000-0--000-0--000-0--0000--000-0--000-0--|

guest
You may want to rate the tab now too:
select rating
Please do not post tabs as comments. Select "correction" instead!