Oops, an error
Loading. Please wait.

Through Struggle Tab

version 1
version 1

Whole song

97,246 views 27 this week
17 commentsread comments
1 2 3 4 5
accurate
x 28
add to favorites
launch autoscroll
font size
0
reset
how to read this tab
guitar tuner
Autoscroll
slow
fast
+/-
esc
set tempo
stop
Help us to improve Ultimate-Guitar.com Take our survey!
×
Author
ok this tabs is through struggle by AS I LAY DYING!!!!
yea
if u need help e-mail me at hold_the_master_pickle@hotmail.com
the tuning is c g c f a d


B^^^^^r/BEND ONE FULL STEP AND HOLD THEN RELEASE IT

GTR 1 & 2
|--------------------------------------------------------------------------|
|--------------------------------------------------------------------------|
|--------------------------------------------------------------------------|
|-0~----------------------------------0~-----------------------------------|
|-0~----------------------------------0~-----------------------------------|
|-0~----------------------------------0~-----------------------------------|
___________________________________________________________________________
GTR 1
|-------------------------------------------------------------------|
|-------------------------------------------------------------------|
|-------------------------------------------------------------------|
|---------------------------------------3-----2-----0-2-3-----3-2-0-|
|-----8-----7-----7-8-10-----10-8-7-111---111-------------111-------|
|-000---000---000--------000--------------------444-----------------|
  ...   ...   ...        ...        ...   ...   ...       ...
GTR 2
|-------------------------------------------------------------------|
|-------------------------------------------------------------------|
|-------------------------------------------------------------------|
|-------------------------------------------------------------------|
|-----8-----7-----7-8-10-----10-8-7----8-----7-----7-8-10----10-8-7-|
|-000---000---000--------000-------000---000---000-------000--------|
  ...   ...   ...        ...       ...   ...   ...       ...
_______________________________________________________________________
GTR 1
|-------------------------------------------------------------------|
|-------------------------------------------------------------------|
|-------------------------------------------------------------------|
|---------------------------------------3-----2-----0-2-3-----3-2-0-|
|-----8-----7-----7-8-10-----10-8-7-111---111-------------111-------|
|-000---000---000--------000--------------------444-----------------|
  ...   ...   ...        ...        ...   ...   ...       ...
GTR 2
|-------------------------------------------------------------------|
|-------------------------------------------------------------------|
|-------------------------------------------------------------------|
|-------------------------------------------------------------------|
|-----8-----7-----7-8-10-----10-8-7----8-----7-----7-8-10----10-8-7-|
|-000---000---000--------000-------000---000---000-------000--------|
  ...   ...   ...        ...       ...   ...   ...       ...
________________________________________________________________________

GTR 1
|-----------------------------------------------------------------|
|-----------------------------------------------------------------|
|-----------------------------------------------------------------|
|-----7-----5-----5-7-8-----8-7-5-----7-----5-----3-5-7-----7-5-3-|
|-----------------------------------------------------------------|
|-000---000---000-------000-------777---777---555-------888-------|
  ...   ...   ...       ...       ...   ...   ...       ...
GTR 2
|-----------------------------------------------------------------|
|-----------------------------------------------------------------|
|-----------------------------------------------------------------|
|-------------------------------------7-----5-----3-5-7-----7-5-3-|
|-----8-----7----7-8-10----10-8-7---------------------------------|
|-000---000---000-------000-------777---777---555-------888-------|
  ...   ...   ...       ...       ...   ...   ...       ...
_________________________________________________________________________

GTR 1
|---------------------------------------------------|
|---------------------------------------------------|
|---------------------------------------------------|
|-----7-----5-----5-7-8-----8-7-5-8-8-8-8-7-5-------|
|---------------------------------8-8-8-8-----9-7\--|
|-000---000---000-------000-------8-8-8-8-----------|
  ...   ...   ...       ...
GTR 2
|---------------------------------------------------|
|---------------------------------------------------|
|---------------------------------------------------|
|-----7-----5-----5-7-8-----8-7-5-8-8-8-8-7-5-------|
|-000---000---000-------000-------8-8-8-8-----9-7\--|
|-000---000---000-------000-------8-8-8-8-----------|
  ...   ...   ...       ...
__________________________________________________________________________

GTR 1
|-----------------------------------------|
|-----------------21B^^^^^r---------------|
|-----------------------------------------|
|-0~------0~----------------------5~------|
|-0~------0~----------------------5~------|
|-0~------0~----------------------5~------|
GTR 2
|-----------------------------------------|
|-----------------------------------------|
|-----------------------------------------|
|-0~------0~------0~------8~------5~------|
|-0~------0~------0~------8~------5~------|
|-0~------0~------0~------8~------5~------|
__________________________________________________________________________

GTR 1 & 2
|----------------------------------------------------------------|
|----------------------------------------------------------------|
|----------------------------------------------------------------|
|-0----------------------------8-----------------5-------------0-|
|-0---5---8---5---11---8---787-8---8---12---10-8-5---7---8---7-0-|
|-0-0---0---0---0----0---0-----8-8---8----8------5-5---5---5---0-|
    .   .   .   .    .   .       .   .    .        .   .   .
 ---------------|
 ---------------|
 ---------------|
 ---------------|
 ---5---8---5---|
 -0---0---0---0-|
  .   .   .   .
___________________________________________________________________________

GTR 1 & 2
|--------------------------------------------------------|
|--------------------------------------------------------|
|--------------------------------------------------------|
|---------------------8-----------------5-------------0--|
|-10-10-10-8-7-8-7----8---8---12---10-8-5---7---8---7-0--|
|------------------10-8-8---8----8------5-5---5---5---0--|
                        .   .    .        .   .   .
GTR 1 & 2
|---------------------------------------------------------|
|---------------------------------------------------------|
|---------------------------------------------------------|
|-------------0-------------8-------------5-------------0-|
|---8---8-7---0---8---8-7-5-8---7---8-7-5-5---8---7-8-5-0-|
|-0---0-----0-0-0---0-------8-8---8-------5-5---5-------0-|
  .   .     .   .   .         .   .         .   .

GTR 1 & 2
|---------------------------------------------------------|
|---------------------------------------------------------|
|---------------------------------------------------------|
|-------------0-------------8-------------5-------------0-|
|---8---8-7---0---8---8-7-5-8---7---8-7-5-5---8---7-8-5-0-|
|-0---0-----0-0-0---0-------8-8---8-------5-5---5-------0-|
  .   .     .   .   .         .   .         .   .

GTR 1 & 2
|---------------------------------------------------------|
|---------------------------------------------------------|
|---------------------------------------------------------|
|---7---7-5---0---7---7-5-3-8---7---7-5-3-5---7---5-7-3-0-|
|-------------0-------------8-------------5-------------0-|
|-0---0-----0-0-0---0-------8-8---8-------5-5---5-------0-|
  .   .     .   .   .         .   .         .   .

GTR 1 & 2
|---------------------------------------------------------|
|---------------------------------------------------------|
|---------------------------------------------------------|
|---7---7-5---0---7---7-5-3-8---7---7-5-3-5---7---5-7-3-0-|
|-------------0-------------8-------------5-------------0-|
|-0---0-----0-0-0---0-------8-8---8-------5-5---5-------0-|
  .   .     .   .   .         .   .         .   .

GTR 1 & 2
|------------------------------------------------------------------------|
|------------------------------------------------------------------------|
|------------------------------------------------------------------------|
|---------------------7---7----------------------------------------------|
|-----------------5-8---8---8----10-----------------5-8-7-8----7---------|
|-000-000-000-000-------------10----000-000-000-000---------10---000-000-|
  ... ... ... ...                   ... ... ... ...              ... ...

GTR 1 & 2
|------------------------------------------------------------------------|
|------------------------------------------------------------------------|
|------------------------------------------------------------------------|
|---------------------7---7----------------------------------------------|
|-----------------5-8---8---8----10-------------------5-8-7-8----7-------|
|-000-000-000-000-------------10----0-0-0-0-0-0-0-0-0---------10---0-0-0-|
  ... ... ... ...

GTR 1 & 2
|------------------------------------------------------------------------|
|------------------------------------------------------------------------|
|------------------------------------------------------------------------|
|---------------------7---7----------------------------------------------|
|-----------------5-8---8---8----10-----------------5-8-7-8----7---------|
|-000-000-000-000-------------10----000-000-000-000---------10---000-000-|
  ... ... ... ...                   ... ... ... ...              ... ...

GTR 1 & 2
|------------------------------------------------------------------------|
|------------------------------------------------------------------------|
|------------------------------------------------------------------------|
|---------------------7---7----------------------------------------------|
|-----------------5-8---8---8----10-------------------5-8-7-8----7-------|
|-000-000-000-000-------------10----0-0-0-0-0-0-0-0-0---------10---0-0-0-|
  ... ... ... ...

GTR 1 & 2
|------------------------------------------|
|------------------------------------------|
|------------------------------------------|
|------------------0-----------------7---0-|
|------------------0---------------0---8-0-|
|-0000-0-0-0-000-0-0-0000-0000-000-------0-|
  .... . . . ... .   .... .... ...

GTR 1 & 2
|------------------------------------------|
|------------------------------------------|
|------------------------------------------|
|------------------0-----------------7---0-|
|------------------0---------------0---8-0-|
|-0000-0-0-0-000-0-0-0000-0000-000-------0-|
  .... . . . ... .   .... .... ...

GTR 1 & 2
|-------------------------------------------------|
|-------------------------------------------------|
|-------------------------------------------------|
|-----------------7---0-----------------------7---|
|---------------0---8-0---------10-8-7------0---8-|
|-0000-0000-000-------0-0000-00--------10-7-------|
  .... .... ...         .... ..

GTR 1 & 2
|-------------------------------------------------|
|-------------------------------------------------|
|-------------------------------------------------|
|-----------------7---0-----------------------7---|
|---------------0---8-0---------10-8-7------0---8-|
|-0000-0000-000-------0-0000-00--------10-7-------|
  .... .... ...         .... ..

GTR 1
|------------------------------------------------------------|
|------------------------------------------------------------|
|------------------------------------------------------------|
|-8-------10---5-------10---0-------10-------------------7---|
|-8-8-7-8----8-5-8-7-8----8-0-8-7-8----8-7-10-8-7------0---8-|
|-8------------5------------0---------------------10-7-------|

GTR 2
|---------------------------------------------------|
|---------------------------------------------------|
|---------------------------------------------------|
|-8~-----------5~-----------0~----------------------|
|-8~-----------5~-----------0~----------------------|
|-8~-----------5~-----------0~----------------------|

GTR 1
|---------------------------------------------------|
|---------------------------------------------------|
|---------------------------------------------------|
|---------10---5-------10---0~----------------------|
|-8-8-7-8----8-5-8-7-8----8-0~----------------------|
|-8------------5------------0~----------------------|

GTR 2
|---------------------------------------------------|---------|
|---------------------------------------------------|---------|
|---------------------------------------------------|---------|
|-8~-----------5~-----------0~----------------------|---------|
|-8~-----------5~-----------0~----------------------|---------|
|-8~-----------5~-----------0~----------------------|--8--5---|

GTR 1 & 2 (X8)
|------------------------------------------------------------------------|
|------------------------------------------------------------------------|
|------------------------------------------------------------------------|
|---------------------7---7----------------------------------------------|
|-----------------5-8---8---8----10-----------------5-8-7-8----7---------|
|-000-000-000-000-------------10----000-000-000-000---------10---000-000-|
  ... ... ... ...                   ... ... ... ...              ... ...

GTR 1 & 2
|------------------------------------------------------------|
|------------------------------------------------------------|
|------------------------------------------------------------|
|-8-------10---5-------10---0-------10-------------------7---|
|-8-8-7-8----8-5-8-7-8----8-0-8-7-8----8-7-10-8-7------0---8-|
|-8------------5------------0---------------------10-7-------|

GTR 1 & 2
|------------------------------------------------------------|
|------------------------------------------------------------|
|------------------------------------------------------------|
|-8-------10---5-------10---0-------10-------------------7---|
|-8-8-7-8----8-5-8-7-8----8-0-8-7-8----8-7-10-8-7------0---8-|
|-8------------5------------0---------------------10-7-------|

GTR 1 & 2
|---------------------------------------------------|
|---------------------------------------------------|
|---------------------------------------------------|
|---------10---5-------10---0~----------------------|
|-8-8-7-8----8-5-8-7-8----8-0~----------------------|
|-8------------5------------0~----------------------|

GTR 2
|-------------------------|
|-------------------------|
|-------------------------|
|-8~-----5~----0~-----0H--|
|-8~-----5~----0~-----0H--|
|-8~-----5~----0~-----0H--|

GTR 1 & 2
|-------------------------------------------------------------------|
|-------------------------------------------------------------------|
|-------------------------------------------------------------------|
|-0-------------------------5-6-5-8-------------------------------0-|
|-0---5---8---5---10---8----------8---8---10---10-8-5---7---8---7-0-|
|-0-0---0---0---0----0---0--------8-8---8----8------5-5---5---5---0-|

 --------------------------------------------------------------------|
 --------------------------------------------------------------------|
 --------------------------------------------------------------------|
 ---------------------------7--------8-------------------------------|
 ---5---8---5-8-10---10-8-7---8-7----8---8---12---10-8----7---8---7--|
 -0---0---0-----------------------10-8-8---8----8------55---5---5----|

GTR 1 & 2
|---------------------------------------------------------------------|
|---------------------------------------------------------------------|
|---------------------------------------------------------------------|
|--------8-----------------5-------------8----------------------------|
|-8-7----8---8---12---10-8-5---7---8---7-8-8---12---10-8----7---8---7-|
|-----10-8-8---8----8------5-5---5---5---8---8----8------55---5---5---|

GTR 1 & 2
|---------------------------------------|
|---------------------------------------|
|---------------------------------------|
|-8-----------------5~------------------|
|-8---8---12---10-8-5~------------------|
|-8-8---8----8------5~------------------|

GTR 1 & 2 (X4)
|-------------------------------|
|-------------------------------|
|-------------------------------|
|-------------------------------|
|-------------------------------|
|-000-000-00-00-000-000-000-000-|
  ... ... .. .. ... ... ... ...

GTR 1 & 2 (TILL THE END)
|-----------------------------------------------------------------|
|-----------------------------------------------------------------|
|-----------------------------------------------------------------|
|-------------------------7---------------------------------7-----|
|-----------------------0---8-5---------------10-8-7------0---8-5-|
|-000-000-00-00-000-000---------000-000-00-00--------10-7---------|
  ... ... .. .. ... ...         ... ... .. ..
THERE
Suggest correction
What's this?
You can suggest a correction to this tab. Community and Mods will review your correction and vote to approve or reject it.
comments
print report bad tab
17 comments total. Showing first comments.
0 reply
laxcountry07 304 wrote on November 26 2005, 05:36 pm

This is a kickass tab!Awesome song!AS I LAY DYING F-ING ROCKS!!!!

0 reply
laxcountry07 304 wrote on November 26 2005, 05:37 pm

This tab is kickass!!!
Through Struggle is an awesome song!!!
AS I LAY DYING F-ING rocks!!!!

0 reply
kostkaskater 85 wrote on December 15 2005, 09:45 am

Thanks for your effort. I was waiting for someone to tab this song cause I was way too lazy. Through Struggle is my favorite song on the album. Somebody needs to make an album tab, even if they do have to copy and paste. Email me sometime at:

kostkaskater@hotmail.com

guest
You may want to rate the tab now too:
select rating
Please do not post tabs as comments. Select "correction" instead!