Oops, an error
Loading. Please wait.

Truth Of My Perception Bass Tab

version 1
version 1

Whole song

563 views 1 this week
no commentswrite comment
1 2 3 4 5
please rate
add to favorites
launch autoscroll
font size
0
reset
guitar tuner
Autoscroll
slow
fast
+/-
esc
set tempo
stop
Help us to improve Ultimate-Guitar.com Take our survey!
×
Author
Difficulty
Tuning
intermediate
C G C F A D
Intro
F|--------------------------------------9h10------9h10|
C|----------------7-8-5----------------8--------10----|x4
G|-----8-7-8-----------------8-7-8--/10------/12------|
C|0-000-0-0--0-000-0-0--0-000-0-0---------------------|

Verse x2
F|--------------------------------------------------------|
C|----------------------------3----------------3---32---3-|
G|5---------------50----73-----5----------------50---50--5|
C|-00-0000-0000-00--0000--0000--00-0000-0000-00-----------|

F|-------------------------------------------------------|
C|---------------------------3----------------7---75-----|
G|---------------50----73-----5----------------85---73-50|
C|00-0000-0000-00--0000--0000--00-0000-0000-00-----------|
*When you play this the second time through put more emphasis on the 0's*

Chorus
F|-------------------------------------|
C|-------------------------------------|
G|-------------------------------------|
C|000-0000-00-000-888-888-101010-101010|

F|-------------------------------|
C|-------------------------------|
G|-----------------------3-33-000|
C|000-0000-00-000-222-222--------|

F|--------------------------------------------------------------------|
C|--------------------------------------------------------------------|
G|111-11--------111-111----333-333-333-111-111----------------3-33-000|
C|------0-00-000-------3-33-------------------0-00-000-333-333--------|

Bridge
F|--------------------------|--------------------------|
C|-----------------------2-2|-----------------------2-3|x4
G|--------------------013-3-|--------------------013-3-|
C|000-00-000-00-000-00------|000-00-000-00-000-00------|

Verse
Chorus

Guitar Solo
F|----------------------------------------------------|
C|----------------------------------------------------|
G|---------------------3~0~1~~~--1~-3~--------3-33-000|
C|0~~~8~~~10~~~0~~~2~~~------0~~~--3--0~~~3~~~--------|

Bridge
Intro x2

End With
F|-|
C|-|
G|0|
C|0|

Suggest correction
What's this?
You can suggest a correction to this tab. Community and Mods will review your correction and vote to approve or reject it.
comments
We did not receive enough feedback on this tab! Please rate:
print report bad tab
1 2 3 4 5
guest
You may want to rate the tab now too:
select rating
Please do not post tabs as comments. Select "correction" instead!