Oops, an error
Loading. Please wait.

Truth Of My Perception Tab

version 1
version 1

Solo

Whole song

5,773 views 1 this week
7 commentsread comments
1 2 3 4 5
x 12
add to favorites
launch autoscroll
font size
0
reset
how to read this tab
guitar tuner
Autoscroll
slow
fast
+/-
esc
set tempo
stop
Help us to improve Ultimate-Guitar.com Take our survey!
×
Author
Difficulty
Tuning
advanced
C G C F A D
yea so i was sick of waiting again so i tabbed this out in like 30 min haha
m sounds 99.9% accurate if ur good and play it right....(tip: play it slow
at first then speed it up)

I also did the empty hearts solo...look for it

rate it if its good

thanks




|-------------------------------12-----------------|
|-----------------10-13----------------------------|
|--10p9p7-------7-------10-9-10--------------------|
|---------7----------------------------------------|
|-----------8-7------------------------------------|
|--------------------------------------------------|





|--17-18--15-17--13-15--13p12p11h12------------12--|
|----------------------------------13-11-10-11-----|
|--------------------------------------------------|
|--------------------------------------------------|
|--------------------------------------------------|
|--------------------------------------------------|




|--------------------------------------------------|
|--------------------------------------------------|
|-----14-15-14-------------------------------------|
|--12----------17-15-14-15-14-12-14b15r------------|
|--------------------------------------------------|
|--------------------------------------------------|




 really fast.........
|-------------------------------------------------------------|
|-------------------------------------------------------------|
|--14-12-14-15-14-12--15-14-15-17-15-14--17-15-17-19-17-15----|
|-------------------------------------------------------------|
|-------------------------------------------------------------|
|-------------------------------------------------------------|





|---------------------------20-------20----------13p12p10h12-----|
|--17-15-13-15-17-18--18-17----17-18------15b17--------------10--|
|----------------------------------------------------------------|
|----------------------------------------------------------------|
|----------------------------------------------------------------|
|----------------------------------------------------------------|






|-------------------------------------------------|
|--15-13----13------------------------------------|
|--------15----15-14-15-14-12--14-12--------------|
|------------------------------------15-14-15-----|
|-------------------------------------------------|
|-------------------------------------------------| 
                        sorry these 2 are supposed to be one line
|-------------------------------------------------|
|-------------------------------------------------|
|----------------14-12---------15-14-15-17b--19\--|
|------------------------15-14--------------------|
|-------------------------------------------------|
|-------------------------------------------------|
Suggest correction
comments
print report bad tab
7 comments total. Showing first comments.
0 reply
-LambOfGod- 72 Jan 26, 2006 01:57 PM

Great job just a few minor mistakes

0 reply
_sXe_ 343 Feb 19, 2006 01:21 PM

Really good tab!

0 reply
_sXe_ 343 Feb 19, 2006 01:35 PM

How about the solo in Empty Hearts? pleeease!

guest
You may want to rate the tab now too:
select rating
Wanna post a correction for this tab? Suggest correction