Oops, an error
Loading. Please wait.

Truth Of My Perception Tab

version 1
version 1

Whole song

3,739 views 1 this week
3 commentsread comments
1 2 3 4 5
accurate
x 4
add to favorites
launch autoscroll
font size
0
reset
how to read this tab
guitar tuner
Tab Pro tools
  • play this tab
  • loop segment
  • change instrument
  • show fretboard
  • metronome
×
Best way to learn
"Truth Of My Perception"
Autoscroll
slow
fast
+/-
esc
set tempo
stop
Contributor
Tuning
C G C F A D
-----------------------------------------------------------------------------
       The Truth of My Perception - As I Lay Dying


Tabbed by:Shinin666
Email:Shinin117@aol.com

                  This is my first tab so go easy.
                             Please Rate

Tuning:Low To High CGCFAd

0:00        Intro- GTR 1
|---------------------------------------------------|
|---------------------------------------------------|
|---------------------------------------------------|
|---------------------------------------------------|
|-------------8-7-8-----------12-13-10-------8-7-8--|
|---0---000-----------0-000-------------0-000-------|
     *   ***           * ***             * ***
0:03
|------------------------------|
|------------------------------|
|------------------------------|
|-------5-7-8---5---7-8-9---7--|
|-------5-7-8-------7-8-9------|
|---0---5-7-8-------7-8-9------|

 0:05
|--------------------------------------------------|
|--------------------------------------------------|
|--------------------------------------------------|
|--------------------------------------------------|
|-------------8-7-8-----------12-13-10-------8-7-8-|
|---0---000-----------0-000-------------0-000------|
     *   ***           * ***             * ***
0:08
|------------------------------|
|------------------------------|
|------------------------------|
|-------5-7-8---5---7-8-9------|
|-------5-7-8-------7-8-9------|
|---0---5-7-8-------7-8-9--0---|


 0:10        Intro 2- Gtr 1 and 2
|---------------------------------------------------|
|---------------------------------------------------|
|---------------------------------------------------|
|---------------------------------------------------|
|-------------8-7-8-----------12-13-10-------8-7-8--|
|---0---000-----------0-000-------------0-000-------|
     *   ***           * ***             * ***
0:13
|----------------------------------|
|----------------------------------|
|----------------------------------|
|-------5-7-8---5---7-8-9---7------|
|-------5-7-8-------7-8-9----------|
|---0---5-7-8-------7-8-9----------|

0:15
|-----------------------------------------------------|
|-----------------------------------------------------|
|-----------------------------------------------------|
|-----------------------------------------------------|
|-------------8-7-8-----------12-13-10-------8-7-8----|
|---0---000-----------0-000-------------0-000---------|
     *   ***           * ***             * ***
0:18
|-------------------------------|
|-------------------------------|
|-------5-7-8---5---7-8-9-------|
|-------5-7-8-------7-8-9-------|
|---0---5-7-8-------7-8-9--0----|

 Don't know the part from 0:20 to 0:41 yet, will put it up when I got it

0:42- 1:02
|---------------------------------------------------------------|-------|
|---------------------------------------------------------------|-------|
|------10/9--7--5-5/7--7-7--7-7---10/9--7--5-5/12-12-12--9-9-9--| ------|
|------x-/x--x--x-x/x--x-x--x-x---x-/x--x--x-x/x--x--x---x-x-x--|  -X 4-|
|------8-/7--5--3-3/5--5-5--5-5---8-/7--5--3-3/10-10-10--7-7-7--|-------|
|---------------------------------------------------------------|-------|

1:03   Gtr 1
|--------------------------------|
|--------------------------------|
|--------------------------------|
|--------------------------------|
|---000--00000--00000------5807--|
|---000--00000--00000--0058------|
    ***  *****  *****  ********


 1:06
|--------------------------------|
|--------------------------------|
|--------------------------------|
|--------------------------------|
|---000--00000--00000------5708--|
|---000--00000--00000--0058------|
    ***  *****  *****  ********

 1:09
|--------------------------------|
|--------------------------------|
|--------------------------------|
|--------------------------------|
|---000--00000--00000------5807--|
|---000--00000--00000--0058------|
    ***  *****  *****  ********

 1:12
|--------------------------------|
|--------------------------------|
|--------------------------------|
|--------------------------------|
|---000--00000--00000------5708--|
|---000--00000--00000--0058------|
    ***  *****  *****  ********

 1:14  Gtr 1 and 2
|-----------------------------------|
|-----------------------------------|
|-----------------------------------|
|------8------8---------8-----------|
|---000---00000---00000-------5807--|
|---000---00000---00000---0058------|
    ***   *****   *****   ********

 1:17
|-----------------------------------|
|-----------------------------------|
|-----------------------------------|
|------8------8---------8-----------|
|---000---00000---00000-------5708--|
|---000---00000---00000---0058------|
    ***   *****   *****   ********

 1:20
|-----------------------------------|
|-----------------------------------|
|-----------------------------------|
|------8------8---------8-----------|
|---000---00000---00000-------5807--|
|---000---00000---00000---0058------|
    ***   *****   *****   ********

 1:23
|-----------------------------------|
|-----------------------------------|
|-----------------------------------|
|------8------8---------8-----------|
|---000---00000---00000-------5708--|
|---000---00000---00000---0058------|
    ***   *****   *****   ********


         Again don't know the part from 1:26- 1:47


1:48-2:08
|---------------------------------------------------------------|-------|
|---------------------------------------------------------------|-------|
|------10/9--7--5-5/7--7-7--7-7---10/9--7--5-5/12-12-12--9-9-9--| ------|
|------x-/x--x--x-x/x--x-x--x-x---x-/x--x--x-x/x--x--x---x-x-x--|  -X 4-|
|------8-/7--5--3-3/5--5-5--5-5---8-/7--5--3-3/10-10-10--7-7-7--|-------|
|---------------------------------------------------------------|-------|


solo
2:09-2:31
|-------------------------------12-----------------|
|-----------------10-13----------------------------|
|--10p9p7-------7-------10-9-10--------------------|
|---------7----------------------------------------|
|-----------8-7------------------------------------|
|--------------------------------------------------|

|--17-18--15-17--13-15--13p12p9h12-------------12--|
|----------------------------------13-11-10-11-----|
|--------------------------------------------------|
|--------------------------------------------------|
|--------------------------------------------------|
|--------------------------------------------------|


|--------------------------------------------------|
|--------------------------------------------------|
|-----14-15-14-------------------------------------|
|--12----------17-15-14-15-14-12-14b15r------------|
|--------------------------------------------------|
|--------------------------------------------------|


|-------------------------------------------------------------|
|-------------------------------------------------------------|
|--14-12-14-15-14-12--15-14-15-17-15-14--17-15-17-19-17-15----|
|-------------------------------------------------------------|
|-------------------------------------------------------------|
|-------------------------------------------------------------|
          pick really fast


|---------------------------20-------20----------13p12p10h12-----|
|--17-15-13-15-17-18--18-17----17-18------15b17--------------10--|
|----------------------------------------------------------------|
|----------------------------------------------------------------|
|----------------------------------------------------------------|
|----------------------------------------------------------------|

|-------------------------------------------|
|-------------------------------------------|
|-------------------------------------------|
|----------14-12---------15-14-15-17b--19\--|
|------------------15-14--------------------|
|-------------------------------------------|

|--------------------------------------------------------------------------|
|-15-13----13--------------------------------------------------------------|
|-------15----15-14-15-14-12--14-12----------------------------------------|
|-----------------------------------15-14-15---14-12--------15-14-15-17b19/|
|-----------------------------------------------------15-14----------------|
|--------------------------------------------------------------------------|


2:32   Gtr 1
|--------------------------------|
|--------------------------------|
|--------------------------------|
|--------------------------------|
|---000--00000--00000------5807--|
|---000--00000--00000--0058------|
    ***  *****  *****  ********


 2:35
|--------------------------------|
|--------------------------------|
|--------------------------------|
|--------------------------------|
|---000--00000--00000------5708--|
|---000--00000--00000--0058------|
    ***  *****  *****  ********

2:38
|--------------------------------|
|--------------------------------|
|--------------------------------|
|--------------------------------|
|---000--00000--00000------5807--|
|---000--00000--00000--0058------|
    ***  *****  *****  ********

 2:41
|--------------------------------|
|--------------------------------|
|--------------------------------|
|--------------------------------|
|---000--00000--00000------5708--|
|---000--00000--00000--0058------|
    ***  *****  *****  ********

 2:44  Gtr 1 and 2
|-----------------------------------|
|-----------------------------------|
|-----------------------------------|
|------8------8---------8-----------|
|---000---00000---00000-------5807--|
|---000---00000---00000---0058------|
    ***   *****   *****   ********

2:47
|-----------------------------------|
|-----------------------------------|
|-----------------------------------|
|------8------8---------8-----------|
|---000---00000---00000-------5708--|
|---000---00000---00000---0058------|
    ***   *****   *****   ********

 2:50
|-----------------------------------|
|-----------------------------------|
|-----------------------------------|
|------8------8---------8-----------|
|---000---00000---00000-------5807--|
|---000---00000---00000---0058------|
    ***   *****   *****   ********

 2:53
|-----------------------------------|
|-----------------------------------|
|-----------------------------------|
|------8------8---------8-----------|
|---000---00000---00000-------5708--|
|---000---00000---00000---0058------|
    ***   *****   *****   ********

 2:56
|---------------------------------------------------|
|---------------------------------------------------|
|---------------------------------------------------|
|---------------------------------------------------|
|-------------8-7-8-----------12-13-9--------8-7-8--|
|---0---000-----------0-000-------------0-000-------|
     *   ***           * ***             * ***

 2:59
|------------------------------|
|------------------------------|
|------------------------------|
|-------5-7-8---5---7-8-9---7--|
|-------5-7-8-------7-8-9------|
|---0---5-7-8-------7-8-9------|

 3:01
|--------------------------------------------------|
|--------------------------------------------------|
|--------------------------------------------------|
|--------------------------------------------------|
|-------------8-7-8-----------12-13-9--------8-7-8-|
|---0---000-----------0-000-------------0-000------|
     *   ***           * ***             * ***
3:04
|------------------------------|
|------------------------------|
|------------------------------|
|-------5-7-8---5---7-8-9------|
|-------5-7-8-------7-8-9------|
|---0---5-7-8-------7-8-9--0---|


| /  slide
| x  Mute note
| * palm mute

     Any questions or suggestions just e-mail me
recognition to imxron for the solo
comments
print report bad tab
3 comments total.
0 reply
Gustavatron. wrote on April 30 2006, 09:20 am

You've got the time things a few seconds off, but that's no problem, maybe it's just my stereo. =)
And good on you for getting that solo, considering it's AILD it's kind of crazy.
Good tab. =]

0 reply
sabbathguy wrote on June 28 2006, 04:16 pm

What the heck dude? this sounds horrible

+1 reply
imxron wrote on July 15 2006, 03:40 pm

you used my tab for the solo

at least give me credit

I want to post or [tab]
guest
You may want to rate the tab now too:
select rating
Please do not post tabs as comments. Select "correction" instead!