Oops, an error
Loading. Please wait.

Truth Of My Perception Tab

version 2
version 2

Solo

Whole song

7,733 views 1 this week
5 commentsread comments
1 2 3 4 5
accurate
x 9
add to favorites
launch autoscroll
font size
0
reset
how to read this tab
guitar tuner
Tab Pro tools
  • play this tab
  • loop segment
  • change instrument
  • show fretboard
  • metronome
Autoscroll
slow
fast
+/-
esc
set tempo
stop
Contributor
Artist:AS I LAY DYING
Song:The Truth of My Perception
Album:Shadows Are Security
Track #: 9


both guitars tuned to drop C


intro
Gtrs I,II
|-----------------------------------------------------|
|-----------------------------------------------------|
|-----------------------------------------------------|
|-------------------------------------------------2-3-|
|------8-7-8------12-13-10-----8-7-8------5-7-0-3-----|
|-0-000-0-0--0-000--0--0--0-000-0-0--0-5-8------------|

|-----------------------------------------------------|
|-----------------------------------------------------|
|-----------------------------------------------------|
|-----------------------------------------------------|
|------8-7-8------12-13-10-----8-7-8------5-6-0-5-7-5-|
|-0-000-0-0--0-000--0--0--0-000-0-0--0-5-8------------|

verse
Gtr I
|-----------------------------------------------------|
|-----------------------------------------------------|
|-----------------------------------------------------|
|-------------------------------------------------2-3-|
|------8-7-8------12-13-10-----8-7-8------5-7-0-3-----|
|-0-000-0-0--0-000--0--0--0-000-0-0--0-5-8------------|
|
|gtr II
|----------------------------------------------------------|
|----------------------------------------------------------|
|----------------------------------------------------------|
|--------------------------------------------------------7-|
|------12-10-12-----8-10-7-----12-10-12------8-10-0-8-10---|
|-0-000--0--0--0-000-0--0-0-000--0--0---0-5-8--------------|


Gtr I
|---------------------------------------------------|
|---------------------------------------------------|
|---------------------------------------------------|
|---------------------------------------------------|
|------8-7-8------12-13-10-----8-7-8------5-7-0-5-7-|
|-0-000-0-0--0-000--0--0--0-000-0-0--0-5-8----------|
|
|GtrII
|-------------------------------------------------------|
|-------------------------------------------------------|
|-------------------------------------------------------|
|-------------------------------------------------------|
|------12-10-12-----8-10-7-----12-10-12-----8-10-0-8-10-|
|-0-000--------0-000-0--0-0-000--0--0--0-5-8------------|

Pre-chorus
Gtrs I,II
|-------------------------------------------------------|
|-------------------------------------------------------|
|-------------------------------------------------------|
|-------------------------------------------------------|
|-5------------5-1---7-3---8-5-----------8-5---8-7----7-|
|--000000000000---000---000---00000000000----8----10-7--| (x2)

|--------------------------------------------------------|
|--------------------------------------------------------|
|--------------------------------------------------------|
|--------------------------------------------------------|
|-5-----------5-1---7-3---8-5-------------8-5---8-7----7-|
|--000-000-000---000---000---000-000-000-0----8----10-7--| (x2)

Chorus
Gtr I
|--------------------------------------------------|
|--------------------------------------------------|
|-10-9-7--7\5-7--77777777-10-9-7--7\5-12-12-9--9-9-|
|-x--x-x--x-x-x--xxxxxxxx-x--x-x--x-x-x--x--x--x-x-|
|-8--7-5--5\3-5--55555555-8--7-5--5\3-10-10-7--7-7-|
|--------------------------------------------------|
|
|Gtr II
|--------------------------------------------------|
|--------------------------------------------------|
|--------------------------------------------------|
|-0-0-0-0-0-0-0-0-0-0-0--8-8-8-8-8--10-10-10-10-10-|
|-0-0-0-0-0-0-0-0-0-0-0--8-8-8-8-8--10-10-10-10-10-|
|-0-0-0-0-0-0-0-0-0-0-0--8-8-8-8-8--10-10-10-10-10-|


Gtr I
|--------------------------------------------------|
|--------------------------------------------------|
|-10-9-7--7\5-7--77777777-10-9-7--7\5-12-12-9--9-9-|
|-x--x-x--x-x-x--xxxxxxxx-x--x-x--x-x-x--x--x--x-x-|
|-8--7-5--5\3-5--55555555-8--7-5--5\3-10-10-7--7-7-|
|--------------------------------------------------|
|
|Gtr II
|--------------------------------------------------|
|--------------------------------------------------|
|--------------------------------------------------|
|-0-0-0-0-0-0-0-0-0-0-0--3-3-3-3-3-3--10-10-7-7-7--|
|-0-0-0-0-0-0-0-0-0-0-0--3-3-3-3-3-3--10-10-7-7-7--|
|-0-0-0-0-0-0-0-0-0-0-0--3-3-3-3-3-3--10-10-7-7-7--|


Gtr I
|--------------------------------------------------|
|--------------------------------------------------|
|-10-9-7--7\5-7--77777777-10-9-7--7\5-12-12-9--9-9-|
|-x--x-x--x-x-x--xxxxxxxx-x--x-x--x-x-x--x--x--x-x-|
|-8--7-5--5\3-5--55555555-8--7-5--5\3-10-10-7--7-7-|
|--------------------------------------------------|
|
|Gtr II
|--------------------------------------------------|
|--------------------------------------------------|
|--------------------------------------------------|
|-8-8-8-8-8-8-8-0-0-0-0-8-8-8-8-8--3-3-10-10-10-10-|
|-8-8-8-8-8-8-8-0-0-0-0-8-8-8-8-8--3-3-10-10-10-10-|
|-8-8-8-8-8-8-8-0-0-0-0-8-8-8-8-8--3-3-10-10-10-10-|


Gtr I
|--------------------------------------------------|
|--------------------------------------------------|
|-10-9-7--7\5-7--77777777-10-9-7--7\5-12-12-9--9-9-|
|-x--x-x--x-x-x--xxxxxxxx-x--x-x--x-x-x--x--x--x-x-|
|-8--7-5--5\3-5--55555555-8--7-5--5\3-10-10-7--7-7-|
|--------------------------------------------------|
|
|Gtr II
|-------------------------------------------------|
|-------------------------------------------------|
|-------------------------------------------------|
|-8-8-8-8-8-8-8-0-0-0-0-8-8-8-8-8-8-10-10-7-7-7---|
|-8-8-8-8-8-8-8-0-0-0-0-8-8-8-8-8-8-10-10-7-7-7---|
|-8-8-8-8-8-8-8-0-0-0-0-8-8-8-8-8-8-10-10-7-7-7---|

interlude
Both Gtrs
|-----------------------------------------------------------|
|-----------------------------------------------------------|
|-----------------------------------------------------------|
|-----------------------------------------------------------|
|--------------------------8-7--------------------------7-8-|
|-000--00000-00000-00-0-7-8-8--000--00000-00000-00-0-7-8-8--| (x2)


Gtr I
|-----------------------------------------------------------|
|-----------------------------------------------------------|
|-----------------------------------------------------------|
|-----------------------------------------------------------|
|----5-----5-----5--------8-7----5-----5-----5--------7-8---|
|-000-00000-00000-00-0-7-8-8--000-00000-00000-00-0-7-8-8----|
|
| Gtr II
|-----------------------------------------------------------|
|-----------------------------------------------------------|
|-----------------------------------------------------------|
|-----------------------------------------------------------|
|----8-----8-----8--------8-7----8-----8-----8--------7-8---|
|-000-00000-00000-00-0-7-8-8--000-00000-00000-00-0-7-8-8----| (x2)


Pre-chorus
Gtr I
|---------------------------------------------------------|
|---------------------------------------------------------|
|---------------------------------------------------------|
|---------------------------------------------------------|
|-5------------5-1---7-3---8-5-------------8-7-8-7----7-5-|
|--000000000000---000---000---00000000000-0---8---10-7----|
|
|Gtr II
|---------------------------------------------------------|
|---------------------------------------------------------|
|---------------------------------------------------------|
|-0-------------------------------------------------------|
|-0------------5-1---7-3--8-5--------------8-7-8-7----7-5-|
|-0---------------------------00000000000-0---8---10-7----|

both Gtrs
|---------------------------------------------------------|
|---------------------------------------------------------|
|---------------------------------------------------------|
|---------------------------------------------------------|
|-5------------5-1---7-3---8-5-------------8-7-8-7----7-5-|
|--000000000000---000---000---00000000000-0---8---10-7----| (x1)

|-------------------------------------------------------|
|-------------------------------------------------------|
|-------------------------------------------------------|
|-------------------------------------------------------|
|-5------------5-1---7-3---8-5-----------8-5---8-7----7-|
|--000000000000---000---000---00000000000----8----10-7--| (x2)

Chorus
Gtr I
|--------------------------------------------------|
|--------------------------------------------------|
|-10-9-7--7\5-7--77777777-10-9-7--7\5-12-12-9--9-9-|
|-x--x-x--x-x-x--xxxxxxxx-x--x-x--x-x-x--x--x--x-x-|
|-8--7-5--5\3-5--55555555-8--7-5--5\3-10-10-7--7-7-|
|--------------------------------------------------|
|
|Gtr II
|--------------------------------------------------|
|--------------------------------------------------|
|--------------------------------------------------|
|-0-0-0-0-0-0-0-0-0-0-0--8-8-8-8-8--10-10-10-10-10-|
|-0-0-0-0-0-0-0-0-0-0-0--8-8-8-8-8--10-10-10-10-10-|
|-0-0-0-0-0-0-0-0-0-0-0--8-8-8-8-8--10-10-10-10-10-|

Gtr I
|--------------------------------------------------|
|--------------------------------------------------|
|-10-9-7--7\5-7--77777777-10-9-7--7\5-12-12-9--9-9-|
|-x--x-x--x-x-x--xxxxxxxx-x--x-x--x-x-x--x--x--x-x-|
|-8--7-5--5\3-5--55555555-8--7-5--5\3-10-10-7--7-7-|
|--------------------------------------------------|
|
|Gtr II
|--------------------------------------------------|
|--------------------------------------------------|
|--------------------------------------------------|
|-0-0-0-0-0-0-0-0-0-0-0--3-3-3-3-3-3--10-10-7-7-7--|
|-0-0-0-0-0-0-0-0-0-0-0--3-3-3-3-3-3--10-10-7-7-7--|
|-0-0-0-0-0-0-0-0-0-0-0--3-3-3-3-3-3--10-10-7-7-7--|

Gtr I
|--------------------------------------------------|
|--------------------------------------------------|
|-10-9-7--7\5-7--77777777-10-9-7--7\5-12-12-9--9-9-|
|-x--x-x--x-x-x--xxxxxxxx-x--x-x--x-x-x--x--x--x-x-|
|-8--7-5--5\3-5--55555555-8--7-5--5\3-10-10-7--7-7-|
|--------------------------------------------------|
|
|Gtr II
|--------------------------------------------------|
|--------------------------------------------------|
|--------------------------------------------------|
|-8-8-8-8-8-8-8-0-0-0-0-8-8-8-8-8--3-3-10-10-10-10-|
|-8-8-8-8-8-8-8-0-0-0-0-8-8-8-8-8--3-3-10-10-10-10-|
|-8-8-8-8-8-8-8-0-0-0-0-8-8-8-8-8--3-3-10-10-10-10-|

Gtr I
|--------------------------------------------------|
|--------------------------------------------------|
|-10-9-7--7\5-7--77777777-10-9-7--7\5-12-12-9--9-9-|
|-x--x-x--x-x-x--xxxxxxxx-x--x-x--x-x-x--x--x--x-x-|
|-8--7-5--5\3-5--55555555-8--7-5--5\3-10-10-7--7-7-|
|--------------------------------------------------|
|
|Gtr II
|-------------------------------------------------|
|-------------------------------------------------|
|-------------------------------------------------|
|-8-8-8-8-8-8-8-0-0-0-0-8-8-8-8-8-8-10-10-7-7-7---|
|-8-8-8-8-8-8-8-0-0-0-0-8-8-8-8-8-8-10-10-7-7-7---|
|-8-8-8-8-8-8-8-0-0-0-0-8-8-8-8-8-8-10-10-7-7-7---|


an accurate tab of the
solo is already posted,
so there is no need in
me tabbing it

solo rythm
|--------------------------------------------------|
|--------------------------------------------------|
|--------------------------------------------------|
|-0-0-0-0-0-0-0-0-0-0-0--8-8-8-8-8--10-10-10-10-10-|
|-0-0-0-0-0-0-0-0-0-0-0--8-8-8-8-8--10-10-10-10-10-|
|-0-0-0-0-0-0-0-0-0-0-0--8-8-8-8-8--10-10-10-10-10-|

|--------------------------------------------------|
|--------------------------------------------------|
|--------------------------------------------------|
|-0-0-0-0-0-0-0-0-0-0-0--3-3-3-3-3-3--10-10-7-7-7--|
|-0-0-0-0-0-0-0-0-0-0-0--3-3-3-3-3-3--10-10-7-7-7--|
|-0-0-0-0-0-0-0-0-0-0-0--3-3-3-3-3-3--10-10-7-7-7--|

|--------------------------------------------------|
|--------------------------------------------------|
|--------------------------------------------------|
|-8-8-8-8-8-8-8-0-0-0-0-8-8-8-8-8--3-3-10-10-10-10-|
|-8-8-8-8-8-8-8-0-0-0-0-8-8-8-8-8--3-3-10-10-10-10-|
|-8-8-8-8-8-8-8-0-0-0-0-8-8-8-8-8--3-3-10-10-10-10-|

|-------------------------------------------------|
|-------------------------------------------------|
|-------------------------------------------------|
|-8-8-8-8-8-8-8-0-0-0-0-8-8-8-8-8-8-10-10-7-7-7---|
|-8-8-8-8-8-8-8-0-0-0-0-8-8-8-8-8-8-10-10-7-7-7---|
|-8-8-8-8-8-8-8-0-0-0-0-8-8-8-8-8-8-10-10-7-7-7---|

interlude
|-----------------------------------------------------------|
|-----------------------------------------------------------|
|-----------------------------------------------------------|
|-----------------------------------------------------------|
|--------------------------8-7--------------------------7-8-|
|-000--00000-00000-00-0-7-8-8--000--00000-00000-00-0-7-8-8--| (x4)

Gtr I
|-----------------------------------------------------------|
|-----------------------------------------------------------|
|-----------------------------------------------------------|
|-----------------------------------------------------------|
|----5-----5-----5--------8-7----5-----5-----5--------7-8---|
|-000-00000-00000-00-0-7-8-8--000-00000-00000-00-0-7-8-8----|
|
| Gtr II
|-----------------------------------------------------------|
|-----------------------------------------------------------|
|-----------------------------------------------------------|
|-----------------------------------------------------------|
|----8-----8-----8--------8-7----8-----8-----8--------7-8---|
|-000-00000-00000-00-0-7-8-8--000-00000-00000-00-0-7-8-8----| (x2)

outro
Gtr I
|-----------------------------------------------------|
|-----------------------------------------------------|
|-----------------------------------------------------|
|-------------------------------------------------2-3-|
|------8-7-8------12-13-10-----8-7-8------5-7-0-3-----|
|-0-000-0-0--0-000--0--0--0-000-0-0--0-5-8------------|
|
|Gtr II
|----------------------------------------------------|
|----------------------------------------------------|
|----------------------------------------------------|
|-0-----------0----------0---------8-------10--------|
|-0-----------0----------0---------8-------10--------|
|-0-----------0----------0---------8-------10--------|

Gtr I
|-----------------------------------------------------|
|-----------------------------------------------------|
|-----------------------------------------------------|
|-------------------------------------------------2-3-|
|------8-7-8------12-13-10-----8-7-8------5-7-0-3-----|
|-0-000-0-0--0-000--0--0--0-000-0-0--0-5-8------------|
|
|Gtr II
|-------------------------------------------------------|
|-------------------------------------------------------|
|-------------------------------------------------------|
|-------------------------------------------------------|
|-0-0-0-0-0-0-0-0-0-0-0-0-0-0-0-0-0-8-8-8-8-10-10-10-10-|
|-0-0-0-0-0-0-0-0-0-0-0-0-0-0-0-0-0-8-8-8-8-10-10-10-10-|

end with
|-----
|-----
|-----
|--0--
|--0--
|--0--
comments
print report bad tab
5 comments total. Showing first comments.
-1 reply
lord of dead wrote on November 26 2006, 12:09 pm

Solo Missing :( !

0 reply
live_fan wrote on April 22 2007, 09:20 pm

A few parts in this could be played a hell of a lot easier than how you have tabbed. But still a 4-star effort.

+3 reply
Hangar_18 wrote on May 10 2007, 04:09 pm

sry if the tabs are a little difficult for you, but i like stretching my fingers. if you play the song the way i've tabbed it, though, then your fingers will get used to new positions and stretches, other than taking the easy way out and not improving at all...

I want to post or [tab]
guest
You may want to rate the tab now too:
select rating
Please do not post tabs as comments. Select "correction" instead!