Oops, an error
Loading. Please wait.

Upside Down Kingdom Tab

version 2
version 2

Intro

Whole song

Interactive

2,503 views 1 this week
5 commentsread comments
1 2 3 4 5
please rate
add to favorites
launch autoscroll
font size
0
reset
how to read this tab
guitar tuner
Autoscroll
slow
fast
+/-
esc
set tempo
stop
Help us to improve Ultimate-Guitar.com Take our survey!
×
Difficulty
Tuning
intermediate
D G C F A D
Submitted By: AILD587
Tuning: Drop D

            pt.1
e|-----------------------------------------------------------------|
B|-----------------------------------------------------------------|
G|-----------------------------------------------------------------|
D|----33-0~~~~~----------55-2~~~~~---------------------------------|
A|----33-0~~~~~----------55-2~~~~~---------------------------------|
D|----33-0~~~~~----------55-2~~~~~---------------------------------|


          pt.2
e|-----------------------------------------------------------------|
B|-----------------------------------------------------------------|
G|-----------------------------------------------------------------|
D|---------------------77--55------------55------------------------|
A|------88-5~-5h7-88-5---88--7~-5h7-88-55--77----------------------|
D|-----------------------------------------------------------------|x4

 i think (could and probably am wrong) guitar 2 does the same thing but an octave up
Suggest correction
Give kudos to tab author, rate the tab!
1 2 3 4 5
comments
print report bad tab
5 comments total. Showing first comments.
0 reply
osakamitsu 50 wrote on March 7 2011, 01:34 am

hey man your off by quite a bit... the main note that rings out in the beginning is on the G string and is 7 and not 5...

Nice try but play a couple frets higher and I think you will see its much much closer to being correct. mess around with the 7-10ish frets for the intro.

Tuning CGCFAD

0 reply
osakamitsu 50 wrote on March 7 2011, 03:02 pm

I actually just submitted my version of the intro... its awaiting approval. Let me know what you think of it.

0 reply
osakamitsu 50 wrote on March 8 2011, 04:43 am

Well they are taking forever to post my tab so here is the intro in the correct tuning. Try it out I think it sounds very close if not right. I could be wrong but Im at least close I think.

CGCFAD

D]-----]-----]-------------------]
A]-----]-----]-------------------]
F]-----]-----]-------------------]
C]-55--]-77--]-55----55--995577--]Pretty much just loops
G]---7-]---9-]---7-79--77------9-]
C]-----]-----]-------------------]
0:19 0:25 0:31

guest
You may want to rate the tab now too:
select rating
Please do not post tabs as comments. Select "correction" instead!