Oops, an error
Loading. Please wait.

Voices That Betray Me Tab

731 views 3 this week
1 commentread comment
1 2 3 4 5
please rate
add to favorites
launch autoscroll
font size
0
reset
how to read this tab
guitar tuner
Autoscroll
slow
fast
+/-
esc
set tempo
stop
Help us to improve Ultimate-Guitar.com Take our survey!
×
Author
Difficulty
Tuning
intermediate
C G C F A D
Band:  As I Lay Dying
Album: Beneath the Encasing of Ashes
Song:  The Voices That Betray Me

Tuning C G C F A D

|-------------------------------------------------------------------|
|-------------------------------------------------------------------|
|-------------------------------------------------------------------|
|--7-8-7-11-8-7-8---------------------------------------------------|
|5------------------------------------------------------------------|
|-------------------------------------------------------------------|

|-------------------------------------------------------------------|
|---10---10---10----------------------------------------------------|
|----x----x----x----------------------------------------------------|
|00--7-0--7-0--7----------------------------------------------------|
|00----0----0-------------------------------------------------------|
|00----0----0-------------------------------------------------------|

|-------------------------------------------------------------------|
|-------------------------------------------------------------------|
|-------------------------------------------------------------------|
|--7-5---8-7-5------------------------------------------------------|
|5-----8-------6-5--------------------------------------------------|
|-------------------------------------------------------------------|

|-------------------------------------------------------------------|
|-------------------------------------------------------------------|
|-------------------------------------------------------------------|
|0-4-3-1-0*-00------------------------------------------------------|
|0-4-3-1-0--00-9-5-7-8----------------------------------------------|
|0-4-3-1-0--00------------------------------------------------------|

|-------------------------------------------------------------------|
|----8/11---10--------11/10-----------------------------------------|
|----x-x-----x---------x-x------------------------------------------|
|000-5/8--0--7-(x8)-0--8/7------------------------------------------|
|000------0---------0-----------------------------------------------|
|000------0---------0-----------------------------------------------|

|-------------------------------------------------------------------|
|--10-11-10-13-11-10-11---------------------------------------------|
|7------------------------------------------------------------------|
|-------------------------------------------------------------------|
|-------------------------------------------------------------------|
|-------------------------------------------------------------------|

|-------------------------------------------------------------------|
|-------------------------------------------------------------------|
|----------7-8-7-10-8-7-8-------------------------------------------|
|2-1-0-1-0-7-8-7-10-8-7-8-------------------------------------------|
|2-1-0-1-0----------------------------------------------------------|
|2-1-0-1-0----------------------------------------------------------|

|-6x-6x-6x-6--7-7-7-------------------------------------------------|
|11x11x11x11-121212-------------------------------------------------|
|-------------------------------------------------------------------|
|-------------------------------------------------------------------|
|-------------------------------------------------------------------|
|-------------------------------------------------------------------|

|-------------------------------------------------------------------|
|-------------------------------------------------------------------|
|--------333--------------------------------------------------------|
|0-0-0-0-888--------------------------------------------------------|
|0-0-0-0------------------------------------------------------------|
|0-0-0-0------------------------------------------------------------|
END
Suggest correction
Give kudos to tab author, rate the tab!
1 2 3 4 5
comments
print report bad tab
1 comment total.
0 reply
angels side 30 wrote on February 1 2007, 11:07 am

this tab sucks

guest
You may want to rate the tab now too:
select rating
Wanna post a correction for this tab? Suggest correction